ISO-10303-21;
HEADER;
FILE_DESCRIPTION (( 'STEP AP203' ),
    '1' );
FILE_NAME ('WH03-216A-110.STEP',
    '2021-09-09T08:25:45',
    ( '' ),
    ( '' ),
    'SwSTEP 2.0',
    'SolidWorks 2017',
    '' );
FILE_SCHEMA (( 'CONFIG_CONTROL_DESIGN' ));
ENDSEC;

DATA;
#1 = DIRECTION ( 'NONE',  ( -1.000000000000000000, -0.0000000000000000000, -0.0000000000000000000 ) ) ;
#2 = ORIENTED_EDGE ( 'NONE', *, *, #43, .T. ) ;
#3 = DIRECTION ( 'NONE',  ( -1.000000000000000000, -0.0000000000000000000, -0.0000000000000000000 ) ) ;
#4 = EDGE_LOOP ( 'NONE', ( #136, #282, #118, #146 ) ) ;
#5 = CARTESIAN_POINT ( 'NONE',  ( 0.0000000000000000000, 0.0000000000000000000, 0.0000000000000000000 ) ) ;
#6 = CIRCLE ( 'NONE', #235, 15.00000000000000000 ) ;
#7 = AXIS2_PLACEMENT_3D ( 'NONE', #98, #184, #290 ) ;
#8 = DIRECTION ( 'NONE',  ( 1.000000000000000000, 0.0000000000000000000, 0.0000000000000000000 ) ) ;
#9 = APPLICATION_PROTOCOL_DEFINITION ( 'international standard', 'config_control_design', 1994, #387 ) ;
#10 = PERSON_AND_ORGANIZATION_ROLE ( 'design_supplier' ) ;
#11 =( LENGTH_UNIT ( ) NAMED_UNIT ( * ) SI_UNIT ( .MILLI., .METRE. ) );
#12 = EDGE_LOOP ( 'NONE', ( #314, #339 ) ) ;
#13 = AXIS2_PLACEMENT_3D ( 'NONE', #64, #313, #187 ) ;
#14 = ADVANCED_FACE ( 'NONE', ( #234, #301 ), #87, .F. ) ;
#15 = CYLINDRICAL_SURFACE ( 'NONE', #122, 12.69999999999999900 ) ;
#16 = AXIS2_PLACEMENT_3D ( 'NONE', #297, #325, #140 ) ;
#17 = CC_DESIGN_PERSON_AND_ORGANIZATION_ASSIGNMENT ( #368, #104, ( #366 ) ) ;
#18 = ORIENTED_EDGE ( 'NONE', *, *, #20, .T. ) ;
#19 = EDGE_CURVE ( 'NONE', #344, #130, #148, .T. ) ;
#20 = EDGE_CURVE ( 'NONE', #231, #68, #142, .T. ) ;
#21 = VERTEX_POINT ( 'NONE', #117 ) ;
#22 = APPROVAL_PERSON_ORGANIZATION ( #145, #85, #106 ) ;
#23 = DIRECTION ( 'NONE',  ( -1.000000000000000000, -0.0000000000000000000, -0.0000000000000000000 ) ) ;
#24 = CARTESIAN_POINT ( 'NONE',  ( 0.0000000000000000000, 0.0000000000000000000, 0.0000000000000000000 ) ) ;
#25 = CARTESIAN_POINT ( 'NONE',  ( -9.629649721936179300E-032, 12.50000000000000000, 0.0000000000000000000 ) ) ;
#26 = EDGE_LOOP ( 'NONE', ( #206, #2, #348, #259 ) ) ;
#27 = DIRECTION ( 'NONE',  ( -1.000000000000000000, -0.0000000000000000000, -0.0000000000000000000 ) ) ;
#28 = ORIENTED_EDGE ( 'NONE', *, *, #138, .F. ) ;
#29 = CARTESIAN_POINT ( 'NONE',  ( 84.49999999999998600, 1.494069094959770900E-015, -12.19999999999999900 ) ) ;
#30 = DIRECTION ( 'NONE',  ( -1.000000000000000000, -0.0000000000000000000, -0.0000000000000000000 ) ) ;
#31 = ORIENTED_EDGE ( 'NONE', *, *, #19, .T. ) ;
#32 = COORDINATED_UNIVERSAL_TIME_OFFSET ( 8, 0, .AHEAD. ) ;
#33 = CARTESIAN_POINT ( 'NONE',  ( 84.49999999999995700, 0.0000000000000000000, 12.69999999999999900 ) ) ;
#34 = CARTESIAN_POINT ( 'NONE',  ( 84.49999999999995700, 0.0000000000000000000, 0.0000000000000000000 ) ) ;
#35 = PRODUCT ( 'WH03-216A-110', 'WH03-216A-110', '', ( #109 ) ) ;
#36 = AXIS2_PLACEMENT_3D ( 'NONE', #350, #100, #320 ) ;
#37 = CARTESIAN_POINT ( 'NONE',  ( 0.0000000000000000000, 0.0000000000000000000, 0.0000000000000000000 ) ) ;
#38 = PRODUCT_DEFINITION ( 'Î´Öª', '', #366, #335 ) ;
#39 = DIRECTION ( 'NONE',  ( 0.0000000000000000000, 0.0000000000000000000, 1.000000000000000000 ) ) ;
#40 = CC_DESIGN_DATE_AND_TIME_ASSIGNMENT ( #230, #76, ( #167 ) ) ;
#41 = VERTEX_POINT ( 'NONE', #114 ) ;
#42 = CARTESIAN_POINT ( 'NONE',  ( 0.0000000000000000000, 1.836970198721029600E-015, -15.00000000000000000 ) ) ;
#43 = EDGE_CURVE ( 'NONE', #50, #21, #55, .T. ) ;
#44 = APPROVAL_ROLE ( '' ) ;
#45 = ORIENTED_EDGE ( 'NONE', *, *, #389, .F. ) ;
#46 = DATE_AND_TIME ( #306, #391 ) ;
#47 = DIRECTION ( 'NONE',  ( -0.0000000000000000000, 0.0000000000000000000, 1.000000000000000000 ) ) ;
#48 = EDGE_CURVE ( 'NONE', #130, #401, #224, .T. ) ;
#49 = ADVANCED_FACE ( 'NONE', ( #210 ), #382, .T. ) ;
#50 = VERTEX_POINT ( 'NONE', #29 ) ;
#51 = APPROVAL_PERSON_ORGANIZATION ( #377, #58, #358 ) ;
#52 = DIRECTION ( 'NONE',  ( -1.000000000000000000, -0.0000000000000000000, -0.0000000000000000000 ) ) ;
#53 = CARTESIAN_POINT ( 'NONE',  ( 0.0000000000000000000, 1.530808498934191500E-015, -12.50000000000000000 ) ) ;
#54 = CYLINDRICAL_SURFACE ( 'NONE', #199, 15.00000000000000000 ) ;
#55 = LINE ( 'NONE', #279, #403 ) ;
#56 = AXIS2_PLACEMENT_3D ( 'NONE', #163, #264, #388 ) ;
#57 = EDGE_LOOP ( 'NONE', ( #375, #182 ) ) ;
#58 = APPROVAL ( #392, 'Î´Ö¸¶¨' ) ;
#59 = DIRECTION ( 'NONE',  ( 0.0000000000000000000, 0.0000000000000000000, 1.000000000000000000 ) ) ;
#60 = CC_DESIGN_APPROVAL ( #85, ( #167 ) ) ;
#61 = DIRECTION ( 'NONE',  ( -1.000000000000000000, 0.0000000000000000000, -0.0000000000000000000 ) ) ;
#62 = EDGE_CURVE ( 'NONE', #82, #41, #79, .T. ) ;
#63 = APPROVAL_DATE_TIME ( #173, #58 ) ;
#64 = CARTESIAN_POINT ( 'NONE',  ( 0.0000000000000000000, 0.0000000000000000000, 0.0000000000000000000 ) ) ;
#65 = EDGE_CURVE ( 'NONE', #401, #202, #155, .T. ) ;
#66 = DIRECTION ( 'NONE',  ( -1.000000000000000000, -0.0000000000000000000, -0.0000000000000000000 ) ) ;
#67 = FACE_OUTER_BOUND ( 'NONE', #316, .T. ) ;
#68 = VERTEX_POINT ( 'NONE', #124 ) ;
#69 = DIRECTION ( 'NONE',  ( 0.0000000000000000000, 0.0000000000000000000, 1.000000000000000000 ) ) ;
#70 = CARTESIAN_POINT ( 'NONE',  ( 0.0000000000000000000, 0.0000000000000000000, 15.00000000000000000 ) ) ;
#71 = ORIENTED_EDGE ( 'NONE', *, *, #414, .F. ) ;
#72 = PRODUCT_DEFINITION_SHAPE ( 'NONE', 'NONE',  #38 ) ;
#73 = FACE_OUTER_BOUND ( 'NONE', #160, .T. ) ;
#74 = DIRECTION ( 'NONE',  ( -1.000000000000000000, 0.0000000000000000000, -0.0000000000000000000 ) ) ;
#75 = APPROVAL_STATUS ( 'not_yet_approved' ) ;
#76 = DATE_TIME_ROLE ( 'classification_date' ) ;
#77 = VERTEX_POINT ( 'NONE', #211 ) ;
#78 = CIRCLE ( 'NONE', #225, 12.50000000000000000 ) ;
#79 = LINE ( 'NONE', #123, #309 ) ;
#80 = PLANE ( 'NONE',  #159 ) ;
#81 = AXIS2_PLACEMENT_3D ( 'NONE', #376, #178, #412 ) ;
#82 = VERTEX_POINT ( 'NONE', #177 ) ;
#83 = ADVANCED_FACE ( 'NONE', ( #233 ), #242, .F. ) ;
#84 = FACE_OUTER_BOUND ( 'NONE', #107, .T. ) ;
#85 = APPROVAL ( #164, 'Î´Ö¸¶¨' ) ;
#86 = EDGE_CURVE ( 'NONE', #202, #401, #402, .T. ) ;
#87 = PLANE ( 'NONE',  #369 ) ;
#88 = CALENDAR_DATE ( 2021, 9, 9 ) ;
#89 = DIRECTION ( 'NONE',  ( -1.000000000000000000, -0.0000000000000000000, -0.0000000000000000000 ) ) ;
#90 = EDGE_LOOP ( 'NONE', ( #226, #214 ) ) ;
#91 = ORIENTED_EDGE ( 'NONE', *, *, #192, .T. ) ;
#92 = CIRCLE ( 'NONE', #257, 15.00000000000000000 ) ;
#93 = DIRECTION ( 'NONE',  ( 0.0000000000000000000, 0.0000000000000000000, 1.000000000000000000 ) ) ;
#94 = DIRECTION ( 'NONE',  ( -1.000000000000000000, -0.0000000000000000000, -0.0000000000000000000 ) ) ;
#95 = CARTESIAN_POINT ( 'NONE',  ( 0.0000000000000000000, 0.0000000000000000000, 0.0000000000000000000 ) ) ;
#96 = DIRECTION ( 'NONE',  ( -1.000000000000000000, -0.0000000000000000000, -0.0000000000000000000 ) ) ;
#97 = COORDINATED_UNIVERSAL_TIME_OFFSET ( 8, 0, .AHEAD. ) ;
#98 = CARTESIAN_POINT ( 'NONE',  ( 0.0000000000000000000, 0.0000000000000000000, 0.0000000000000000000 ) ) ;
#99 = DIRECTION ( 'NONE',  ( -1.000000000000000000, -0.0000000000000000000, -0.0000000000000000000 ) ) ;
#100 = DIRECTION ( 'NONE',  ( -1.000000000000000000, -0.0000000000000000000, -0.0000000000000000000 ) ) ;
#101 = CIRCLE ( 'NONE', #338, 12.19999999999999900 ) ;
#102 = DIRECTION ( 'NONE',  ( -1.000000000000000000, -0.0000000000000000000, -0.0000000000000000000 ) ) ;
#103 = SECURITY_CLASSIFICATION_LEVEL ( 'unclassified' ) ;
#104 = PERSON_AND_ORGANIZATION_ROLE ( 'creator' ) ;
#105 = ORIENTED_EDGE ( 'NONE', *, *, #216, .F. ) ;
#106 = APPROVAL_ROLE ( '' ) ;
#107 = EDGE_LOOP ( 'NONE', ( #105, #196, #409, #127 ) ) ;
#108 = LOCAL_TIME ( 16, 25, 45.00000000000000000, #32 ) ;
#109 = MECHANICAL_CONTEXT ( 'NONE', #361, 'mechanical' ) ;
#110 = ADVANCED_FACE ( 'NONE', ( #147 ), #252, .F. ) ;
#111 = ADVANCED_FACE ( 'NONE', ( #380, #67 ), #215, .F. ) ;
#112 = EDGE_CURVE ( 'NONE', #406, #68, #299, .T. ) ;
#113 = ORIENTED_EDGE ( 'NONE', *, *, #19, .F. ) ;
#114 = CARTESIAN_POINT ( 'NONE',  ( 83.69999999999998900, 0.0000000000000000000, 12.19999999999999900 ) ) ;
#115 = EDGE_LOOP ( 'NONE', ( #18, #283 ) ) ;
#116 = DIRECTION ( 'NONE',  ( -1.000000000000000000, -0.0000000000000000000, -0.0000000000000000000 ) ) ;
#117 = CARTESIAN_POINT ( 'NONE',  ( 83.69999999999998900, 1.494069094959770900E-015, -12.19999999999999900 ) ) ;
#118 = ORIENTED_EDGE ( 'NONE', *, *, #62, .T. ) ;
#119 = PERSON_AND_ORGANIZATION ( #381, #399 ) ;
#120 = DIRECTION ( 'NONE',  ( -1.000000000000000000, -0.0000000000000000000, -0.0000000000000000000 ) ) ;
#121 = CARTESIAN_POINT ( 'NONE',  ( 84.49999999999997200, 12.19999999999999900, 0.0000000000000000000 ) ) ;
#122 = AXIS2_PLACEMENT_3D ( 'NONE', #37, #135, #256 ) ;
#123 = CARTESIAN_POINT ( 'NONE',  ( 0.0000000000000000000, 0.0000000000000000000, 12.19999999999999900 ) ) ;
#124 = CARTESIAN_POINT ( 'NONE',  ( 84.49999999999995700, 1.555301434917138400E-015, -12.69999999999999900 ) ) ;
#125 = CC_DESIGN_APPROVAL ( #58, ( #38 ) ) ;
#126 = ORIENTED_EDGE ( 'NONE', *, *, #343, .F. ) ;
#127 = ORIENTED_EDGE ( 'NONE', *, *, #240, .F. ) ;
#128 = CARTESIAN_POINT ( 'NONE',  ( 0.0000000000000000000, 1.836970198721029600E-015, -15.00000000000000000 ) ) ;
#129 = DIRECTION ( 'NONE',  ( 0.0000000000000000000, 0.0000000000000000000, 1.000000000000000000 ) ) ;
#130 = VERTEX_POINT ( 'NONE', #342 ) ;
#131 = PERSON_AND_ORGANIZATION ( #381, #399 ) ;
#132 = CARTESIAN_POINT ( 'NONE',  ( 83.70000000000000300, 0.0000000000000000000, 0.0000000000000000000 ) ) ;
#133 = VECTOR ( 'NONE', #415, 1000.000000000000000 ) ;
#134 = VECTOR ( 'NONE', #89, 1000.000000000000000 ) ;
#135 = DIRECTION ( 'NONE',  ( -1.000000000000000000, -0.0000000000000000000, -0.0000000000000000000 ) ) ;
#136 = ORIENTED_EDGE ( 'NONE', *, *, #43, .F. ) ;
#137 = DIRECTION ( 'NONE',  ( -1.000000000000000000, -0.0000000000000000000, -0.0000000000000000000 ) ) ;
#138 = EDGE_CURVE ( 'NONE', #77, #374, #222, .T. ) ;
#139 = CARTESIAN_POINT ( 'NONE',  ( 83.70000000000000300, 15.00000000000000000, 0.0000000000000000000 ) ) ;
#140 = DIRECTION ( 'NONE',  ( 1.000000000000000000, 0.0000000000000000000, 0.0000000000000000000 ) ) ;
#141 = FACE_OUTER_BOUND ( 'NONE', #331, .T. ) ;
#142 = CIRCLE ( 'NONE', #346, 12.69999999999999900 ) ;
#143 = AXIS2_PLACEMENT_3D ( 'NONE', #223, #383, #69 ) ;
#144 = CC_DESIGN_PERSON_AND_ORGANIZATION_ASSIGNMENT ( #151, #269, ( #38 ) ) ;
#145 = PERSON_AND_ORGANIZATION ( #381, #399 ) ;
#146 = ORIENTED_EDGE ( 'NONE', *, *, #307, .F. ) ;
#147 = FACE_OUTER_BOUND ( 'NONE', #153, .T. ) ;
#148 = CIRCLE ( 'NONE', #393, 12.50000000000000000 ) ;
#149 = CYLINDRICAL_SURFACE ( 'NONE', #13, 12.19999999999999900 ) ;
#150 = EDGE_CURVE ( 'NONE', #41, #21, #394, .T. ) ;
#151 = PERSON_AND_ORGANIZATION ( #381, #399 ) ;
#152 = DIRECTION ( 'NONE',  ( -1.000000000000000000, -0.0000000000000000000, -0.0000000000000000000 ) ) ;
#153 = EDGE_LOOP ( 'NONE', ( #386, #45 ) ) ;
#154 = CIRCLE ( 'NONE', #294, 15.00000000000000000 ) ;
#155 = CIRCLE ( 'NONE', #81, 12.50000000000000000 ) ;
#156 = CARTESIAN_POINT ( 'NONE',  ( 0.0000000000000000000, 0.0000000000000000000, 0.0000000000000000000 ) ) ;
#157 = UNCERTAINTY_MEASURE_WITH_UNIT (LENGTH_MEASURE( 1.000000000000000100E-005 ), #11, 'distance_accuracy_value', 'NONE');
#158 = DIRECTION ( 'NONE',  ( 0.0000000000000000000, 0.0000000000000000000, 1.000000000000000000 ) ) ;
#159 = AXIS2_PLACEMENT_3D ( 'NONE', #139, #74, #47 ) ;
#160 = EDGE_LOOP ( 'NONE', ( #296, #395, #247, #303 ) ) ;
#161 = LINE ( 'NONE', #70, #133 ) ;
#162 = APPROVAL ( #75, 'Î´Ö¸¶¨' ) ;
#163 = CARTESIAN_POINT ( 'NONE',  ( 87.70000000000000300, 0.0000000000000000000, 0.0000000000000000000 ) ) ;
#164 = APPROVAL_STATUS ( 'not_yet_approved' ) ;
#165 = FACE_OUTER_BOUND ( 'NONE', #26, .T. ) ;
#166 = EDGE_LOOP ( 'NONE', ( #356, #319, #248, #191 ) ) ;
#167 = SECURITY_CLASSIFICATION ( '', '', #103 ) ;
#168 = CYLINDRICAL_SURFACE ( 'NONE', #404, 15.00000000000000000 ) ;
#169 = ADVANCED_FACE ( 'NONE', ( #141 ), #54, .T. ) ;
#170 = EDGE_CURVE ( 'NONE', #363, #77, #154, .T. ) ;
#171 = VECTOR ( 'NONE', #66, 1000.000000000000000 ) ;
#172 = ORIENTED_EDGE ( 'NONE', *, *, #240, .T. ) ;
#173 = DATE_AND_TIME ( #278, #360 ) ;
#174 = APPROVAL_DATE_TIME ( #291, #85 ) ;
#175 = VECTOR ( 'NONE', #3, 1000.000000000000000 ) ;
#176 = AXIS2_PLACEMENT_3D ( 'NONE', #370, #61, #253 ) ;
#177 = CARTESIAN_POINT ( 'NONE',  ( 84.49999999999998600, 0.0000000000000000000, 12.19999999999999900 ) ) ;
#178 = DIRECTION ( 'NONE',  ( -1.000000000000000000, -0.0000000000000000000, -0.0000000000000000000 ) ) ;
#179 = CC_DESIGN_DATE_AND_TIME_ASSIGNMENT ( #289, #354, ( #38 ) ) ;
#180 = DIRECTION ( 'NONE',  ( -1.000000000000000000, -0.0000000000000000000, -0.0000000000000000000 ) ) ;
#181 = CC_DESIGN_PERSON_AND_ORGANIZATION_ASSIGNMENT ( #119, #266, ( #167 ) ) ;
#182 = ORIENTED_EDGE ( 'NONE', *, *, #307, .T. ) ;
#183 = FACE_BOUND ( 'NONE', #57, .T. ) ;
#184 = DIRECTION ( 'NONE',  ( -1.000000000000000000, -0.0000000000000000000, -0.0000000000000000000 ) ) ;
#185 = ORIENTED_EDGE ( 'NONE', *, *, #263, .F. ) ;
#186 = APPROVAL_DATE_TIME ( #46, #162 ) ;
#187 = DIRECTION ( 'NONE',  ( 0.0000000000000000000, 0.0000000000000000000, 1.000000000000000000 ) ) ;
#188 = DIRECTION ( 'NONE',  ( 0.0000000000000000000, 0.0000000000000000000, 1.000000000000000000 ) ) ;
#189 = CC_DESIGN_PERSON_AND_ORGANIZATION_ASSIGNMENT ( #197, #10, ( #366 ) ) ;
#190 = CARTESIAN_POINT ( 'NONE',  ( 3.000000000000001300, -1.037275838877808100E-014, 0.0000000000000000000 ) ) ;
#191 = ORIENTED_EDGE ( 'NONE', *, *, #284, .F. ) ;
#192 = EDGE_CURVE ( 'NONE', #330, #374, #315, .T. ) ;
#193 =( NAMED_UNIT ( * ) PLANE_ANGLE_UNIT ( ) SI_UNIT ( $, .RADIAN. ) );
#194 = ORIENTED_EDGE ( 'NONE', *, *, #20, .F. ) ;
#195 = CARTESIAN_POINT ( 'NONE',  ( 83.70000000000000300, 0.0000000000000000000, 15.00000000000000000 ) ) ;
#196 = ORIENTED_EDGE ( 'NONE', *, *, #48, .T. ) ;
#197 = PERSON_AND_ORGANIZATION ( #381, #399 ) ;
#198 = APPLICATION_PROTOCOL_DEFINITION ( 'international standard', 'config_control_design', 1994, #361 ) ;
#199 = AXIS2_PLACEMENT_3D ( 'NONE', #95, #286, #93 ) ;
#200 = ORIENTED_EDGE ( 'NONE', *, *, #287, .T. ) ;
#201 =( GEOMETRIC_REPRESENTATION_CONTEXT ( 3 ) GLOBAL_UNCERTAINTY_ASSIGNED_CONTEXT ( ( #157 ) ) GLOBAL_UNIT_ASSIGNED_CONTEXT ( ( #11, #193, #232 ) ) REPRESENTATION_CONTEXT ( 'NONE', 'WORKASPACE' ) );
#202 = VERTEX_POINT ( 'NONE', #212 ) ;
#203 = PRODUCT_RELATED_PRODUCT_CATEGORY ( 'detail', '', ( #35 ) ) ;
#204 = CARTESIAN_POINT ( 'NONE',  ( 3.000000000000000000, 0.0000000000000000000, 0.0000000000000000000 ) ) ;
#205 = DIRECTION ( 'NONE',  ( -1.000000000000000000, -0.0000000000000000000, -0.0000000000000000000 ) ) ;
#206 = ORIENTED_EDGE ( 'NONE', *, *, #267, .T. ) ;
#207 = COORDINATED_UNIVERSAL_TIME_OFFSET ( 8, 0, .AHEAD. ) ;
#208 = AXIS2_PLACEMENT_3D ( 'NONE', #34, #1, #158 ) ;
#209 = VECTOR ( 'NONE', #94, 1000.000000000000000 ) ;
#210 = FACE_OUTER_BOUND ( 'NONE', #367, .T. ) ;
#211 = CARTESIAN_POINT ( 'NONE',  ( 83.70000000000000300, 1.836970198721029600E-015, -15.00000000000000000 ) ) ;
#212 = CARTESIAN_POINT ( 'NONE',  ( -1.925929944387235900E-031, 0.0000000000000000000, 12.50000000000000000 ) ) ;
#213 = CC_DESIGN_SECURITY_CLASSIFICATION ( #167, ( #366 ) ) ;
#214 = ORIENTED_EDGE ( 'NONE', *, *, #287, .F. ) ;
#215 = PLANE ( 'NONE',  #280 ) ;
#216 = EDGE_CURVE ( 'NONE', #130, #344, #78, .T. ) ;
#217 = DIRECTION ( 'NONE',  ( 0.0000000000000000000, 0.0000000000000000000, 1.000000000000000000 ) ) ;
#218 = DIRECTION ( 'NONE',  ( 0.0000000000000000000, 0.0000000000000000000, -1.000000000000000000 ) ) ;
#219 = APPROVAL_PERSON_ORGANIZATION ( #131, #162, #44 ) ;
#220 = CARTESIAN_POINT ( 'NONE',  ( 0.0000000000000000000, 0.0000000000000000000, 12.50000000000000000 ) ) ;
#221 = SHAPE_DEFINITION_REPRESENTATION ( #72, #318 ) ;
#222 = LINE ( 'NONE', #128, #308 ) ;
#223 = CARTESIAN_POINT ( 'NONE',  ( 83.69999999999998900, 0.0000000000000000000, 0.0000000000000000000 ) ) ;
#224 = LINE ( 'NONE', #53, #134 ) ;
#225 = AXIS2_PLACEMENT_3D ( 'NONE', #261, #99, #258 ) ;
#226 = ORIENTED_EDGE ( 'NONE', *, *, #170, .F. ) ;
#227 = AXIS2_PLACEMENT_3D ( 'NONE', #190, #8, #326 ) ;
#228 = CARTESIAN_POINT ( 'NONE',  ( 3.000000000000000000, 0.0000000000000000000, 12.50000000000000000 ) ) ;
#229 = CARTESIAN_POINT ( 'NONE',  ( 87.70000000000000300, 1.555301434917138400E-015, -12.69999999999999900 ) ) ;
#230 = DATE_AND_TIME ( #312, #108 ) ;
#231 = VERTEX_POINT ( 'NONE', #33 ) ;
#232 =( NAMED_UNIT ( * ) SI_UNIT ( $, .STERADIAN. ) SOLID_ANGLE_UNIT ( ) );
#233 = FACE_OUTER_BOUND ( 'NONE', #270, .T. ) ;
#234 = FACE_BOUND ( 'NONE', #237, .T. ) ;
#235 = AXIS2_PLACEMENT_3D ( 'NONE', #5, #30, #345 ) ;
#236 = CC_DESIGN_APPROVAL ( #162, ( #366 ) ) ;
#237 = EDGE_LOOP ( 'NONE', ( #321, #71 ) ) ;
#238 = CIRCLE ( 'NONE', #208, 12.69999999999999900 ) ;
#239 = ADVANCED_FACE ( 'NONE', ( #245 ), #15, .T. ) ;
#240 = EDGE_CURVE ( 'NONE', #344, #202, #251, .T. ) ;
#241 = CALENDAR_DATE ( 2021, 9, 9 ) ;
#242 = CYLINDRICAL_SURFACE ( 'NONE', #249, 12.50000000000000000 ) ;
#243 = DIRECTION ( 'NONE',  ( 0.0000000000000000000, 0.0000000000000000000, 1.000000000000000000 ) ) ;
#244 = CIRCLE ( 'NONE', #56, 12.69999999999999900 ) ;
#245 = FACE_OUTER_BOUND ( 'NONE', #166, .T. ) ;
#246 = CARTESIAN_POINT ( 'NONE',  ( -1.925929944387235900E-031, 0.0000000000000000000, 0.0000000000000000000 ) ) ;
#247 = ORIENTED_EDGE ( 'NONE', *, *, #192, .F. ) ;
#248 = ORIENTED_EDGE ( 'NONE', *, *, #343, .T. ) ;
#249 = AXIS2_PLACEMENT_3D ( 'NONE', #24, #27, #411 ) ;
#250 = DIRECTION ( 'NONE',  ( -1.000000000000000000, -0.0000000000000000000, -0.0000000000000000000 ) ) ;
#251 = LINE ( 'NONE', #220, #175 ) ;
#252 = PLANE ( 'NONE',  #176 ) ;
#253 = DIRECTION ( 'NONE',  ( -0.0000000000000000000, 0.0000000000000000000, 1.000000000000000000 ) ) ;
#254 = DIRECTION ( 'NONE',  ( 0.0000000000000000000, 0.0000000000000000000, 1.000000000000000000 ) ) ;
#255 = FACE_OUTER_BOUND ( 'NONE', #90, .T. ) ;
#256 = DIRECTION ( 'NONE',  ( 0.0000000000000000000, 0.0000000000000000000, 1.000000000000000000 ) ) ;
#257 = AXIS2_PLACEMENT_3D ( 'NONE', #132, #347, #39 ) ;
#258 = DIRECTION ( 'NONE',  ( 0.0000000000000000000, 0.0000000000000000000, 1.000000000000000000 ) ) ;
#259 = ORIENTED_EDGE ( 'NONE', *, *, #62, .F. ) ;
#260 = CLOSED_SHELL ( 'NONE', ( #49, #334, #273, #302, #83, #111, #169, #362, #274, #14, #239, #110, #397 ) ) ;
#261 = CARTESIAN_POINT ( 'NONE',  ( 3.000000000000000000, 0.0000000000000000000, 0.0000000000000000000 ) ) ;
#262 = CARTESIAN_POINT ( 'NONE',  ( 84.49999999999998600, 0.0000000000000000000, 0.0000000000000000000 ) ) ;
#263 = EDGE_CURVE ( 'NONE', #374, #330, #6, .T. ) ;
#264 = DIRECTION ( 'NONE',  ( -1.000000000000000000, -0.0000000000000000000, -0.0000000000000000000 ) ) ;
#265 = EDGE_LOOP ( 'NONE', ( #31, #329 ) ) ;
#266 = PERSON_AND_ORGANIZATION_ROLE ( 'classification_officer' ) ;
#267 = EDGE_CURVE ( 'NONE', #82, #50, #101, .T. ) ;
#268 = CYLINDRICAL_SURFACE ( 'NONE', #36, 12.19999999999999900 ) ;
#269 = PERSON_AND_ORGANIZATION_ROLE ( 'creator' ) ;
#270 = EDGE_LOOP ( 'NONE', ( #359, #113, #172, #277 ) ) ;
#271 = PERSON_AND_ORGANIZATION ( #381, #399 ) ;
#272 = CARTESIAN_POINT ( 'NONE',  ( -1.925929944387235900E-031, 1.530808498934191500E-015, -12.50000000000000000 ) ) ;
#273 = ADVANCED_FACE ( 'NONE', ( #73 ), #168, .T. ) ;
#274 = ADVANCED_FACE ( 'NONE', ( #341 ), #149, .T. ) ;
#275 = ORIENTED_EDGE ( 'NONE', *, *, #112, .T. ) ;
#276 = LINE ( 'NONE', #352, #171 ) ;
#277 = ORIENTED_EDGE ( 'NONE', *, *, #86, .T. ) ;
#278 = CALENDAR_DATE ( 2021, 9, 9 ) ;
#279 = CARTESIAN_POINT ( 'NONE',  ( 0.0000000000000000000, 1.494069094959770900E-015, -12.19999999999999900 ) ) ;
#280 = AXIS2_PLACEMENT_3D ( 'NONE', #25, #285, #218 ) ;
#281 = DIRECTION ( 'NONE',  ( 0.0000000000000000000, 0.0000000000000000000, 1.000000000000000000 ) ) ;
#282 = ORIENTED_EDGE ( 'NONE', *, *, #414, .T. ) ;
#283 = ORIENTED_EDGE ( 'NONE', *, *, #284, .T. ) ;
#284 = EDGE_CURVE ( 'NONE', #68, #231, #238, .T. ) ;
#285 = DIRECTION ( 'NONE',  ( 1.000000000000000000, 0.0000000000000000000, 0.0000000000000000000 ) ) ;
#286 = DIRECTION ( 'NONE',  ( -1.000000000000000000, -0.0000000000000000000, -0.0000000000000000000 ) ) ;
#287 = EDGE_CURVE ( 'NONE', #77, #363, #92, .T. ) ;
#288 = ORIENTED_EDGE ( 'NONE', *, *, #323, .T. ) ;
#289 = DATE_AND_TIME ( #241, #349 ) ;
#290 = DIRECTION ( 'NONE',  ( 0.0000000000000000000, 0.0000000000000000000, 1.000000000000000000 ) ) ;
#291 = DATE_AND_TIME ( #88, #324 ) ;
#292 = CARTESIAN_POINT ( 'NONE',  ( 84.49999999999998600, 0.0000000000000000000, 0.0000000000000000000 ) ) ;
#293 = CARTESIAN_POINT ( 'NONE',  ( 0.0000000000000000000, 0.0000000000000000000, 15.00000000000000000 ) ) ;
#294 = AXIS2_PLACEMENT_3D ( 'NONE', #311, #96, #407 ) ;
#295 = VERTEX_POINT ( 'NONE', #378 ) ;
#296 = ORIENTED_EDGE ( 'NONE', *, *, #170, .T. ) ;
#297 = CARTESIAN_POINT ( 'NONE',  ( 0.0000000000000000000, 0.0000000000000000000, 0.0000000000000000000 ) ) ;
#298 = COORDINATED_UNIVERSAL_TIME_OFFSET ( 8, 0, .AHEAD. ) ;
#299 = LINE ( 'NONE', #371, #209 ) ;
#300 = AXIS2_PLACEMENT_3D ( 'NONE', #246, #180, #217 ) ;
#301 = FACE_OUTER_BOUND ( 'NONE', #115, .T. ) ;
#302 = ADVANCED_FACE ( 'NONE', ( #84 ), #322, .F. ) ;
#303 = ORIENTED_EDGE ( 'NONE', *, *, #323, .F. ) ;
#304 = DIRECTION ( 'NONE',  ( 0.0000000000000000000, 0.0000000000000000000, -1.000000000000000000 ) ) ;
#305 = EDGE_CURVE ( 'NONE', #295, #406, #332, .T. ) ;
#306 = CALENDAR_DATE ( 2021, 9, 9 ) ;
#307 = EDGE_CURVE ( 'NONE', #21, #41, #410, .T. ) ;
#308 = VECTOR ( 'NONE', #23, 1000.000000000000000 ) ;
#309 = VECTOR ( 'NONE', #405, 1000.000000000000000 ) ;
#310 = ORIENTED_EDGE ( 'NONE', *, *, #263, .T. ) ;
#311 = CARTESIAN_POINT ( 'NONE',  ( 83.70000000000000300, 0.0000000000000000000, 0.0000000000000000000 ) ) ;
#312 = CALENDAR_DATE ( 2021, 9, 9 ) ;
#313 = DIRECTION ( 'NONE',  ( -1.000000000000000000, -0.0000000000000000000, -0.0000000000000000000 ) ) ;
#314 = ORIENTED_EDGE ( 'NONE', *, *, #86, .F. ) ;
#315 = CIRCLE ( 'NONE', #372, 15.00000000000000000 ) ;
#316 = EDGE_LOOP ( 'NONE', ( #91, #310 ) ) ;
#317 = CARTESIAN_POINT ( 'NONE',  ( 87.70000000000000300, 0.0000000000000000000, 0.0000000000000000000 ) ) ;
#318 = ADVANCED_BREP_SHAPE_REPRESENTATION ( 'WH03-216A-110', ( #379, #16 ), #201 ) ;
#319 = ORIENTED_EDGE ( 'NONE', *, *, #389, .T. ) ;
#320 = DIRECTION ( 'NONE',  ( 0.0000000000000000000, 0.0000000000000000000, 1.000000000000000000 ) ) ;
#321 = ORIENTED_EDGE ( 'NONE', *, *, #267, .F. ) ;
#322 = CYLINDRICAL_SURFACE ( 'NONE', #7, 12.50000000000000000 ) ;
#323 = EDGE_CURVE ( 'NONE', #363, #330, #161, .T. ) ;
#324 = LOCAL_TIME ( 16, 25, 45.00000000000000000, #97 ) ;
#325 = DIRECTION ( 'NONE',  ( 0.0000000000000000000, 0.0000000000000000000, 1.000000000000000000 ) ) ;
#326 = DIRECTION ( 'NONE',  ( 0.0000000000000000000, 0.0000000000000000000, -1.000000000000000000 ) ) ;
#327 = PERSON_AND_ORGANIZATION_ROLE ( 'design_owner' ) ;
#328 = FACE_OUTER_BOUND ( 'NONE', #265, .T. ) ;
#329 = ORIENTED_EDGE ( 'NONE', *, *, #216, .T. ) ;
#330 = VERTEX_POINT ( 'NONE', #293 ) ;
#331 = EDGE_LOOP ( 'NONE', ( #28, #200, #288, #185 ) ) ;
#332 = CIRCLE ( 'NONE', #333, 12.69999999999999900 ) ;
#333 = AXIS2_PLACEMENT_3D ( 'NONE', #317, #351, #413 ) ;
#334 = ADVANCED_FACE ( 'NONE', ( #165 ), #268, .T. ) ;
#335 = DESIGN_CONTEXT ( 'detailed design', #387, 'design' ) ;
#336 = DIRECTION ( 'NONE',  ( 0.0000000000000000000, 0.0000000000000000000, 1.000000000000000000 ) ) ;
#337 = COORDINATED_UNIVERSAL_TIME_OFFSET ( 8, 0, .AHEAD. ) ;
#338 = AXIS2_PLACEMENT_3D ( 'NONE', #292, #385, #254 ) ;
#339 = ORIENTED_EDGE ( 'NONE', *, *, #65, .F. ) ;
#340 = CARTESIAN_POINT ( 'NONE',  ( 83.69999999999998900, 0.0000000000000000000, 0.0000000000000000000 ) ) ;
#341 = FACE_OUTER_BOUND ( 'NONE', #4, .T. ) ;
#342 = CARTESIAN_POINT ( 'NONE',  ( 3.000000000000000000, 1.530808498934191500E-015, -12.50000000000000000 ) ) ;
#343 = EDGE_CURVE ( 'NONE', #295, #231, #276, .T. ) ;
#344 = VERTEX_POINT ( 'NONE', #228 ) ;
#345 = DIRECTION ( 'NONE',  ( 0.0000000000000000000, 0.0000000000000000000, 1.000000000000000000 ) ) ;
#346 = AXIS2_PLACEMENT_3D ( 'NONE', #400, #52, #243 ) ;
#347 = DIRECTION ( 'NONE',  ( -1.000000000000000000, -0.0000000000000000000, -0.0000000000000000000 ) ) ;
#348 = ORIENTED_EDGE ( 'NONE', *, *, #150, .F. ) ;
#349 = LOCAL_TIME ( 16, 25, 45.00000000000000000, #207 ) ;
#350 = CARTESIAN_POINT ( 'NONE',  ( 0.0000000000000000000, 0.0000000000000000000, 0.0000000000000000000 ) ) ;
#351 = DIRECTION ( 'NONE',  ( -1.000000000000000000, -0.0000000000000000000, -0.0000000000000000000 ) ) ;
#352 = CARTESIAN_POINT ( 'NONE',  ( 0.0000000000000000000, 0.0000000000000000000, 12.69999999999999900 ) ) ;
#353 = AXIS2_PLACEMENT_3D ( 'NONE', #340, #250, #281 ) ;
#354 = DATE_TIME_ROLE ( 'creation_date' ) ;
#355 = DIRECTION ( 'NONE',  ( 0.0000000000000000000, 0.0000000000000000000, 1.000000000000000000 ) ) ;
#356 = ORIENTED_EDGE ( 'NONE', *, *, #112, .F. ) ;
#357 = CIRCLE ( 'NONE', #408, 12.19999999999999900 ) ;
#358 = APPROVAL_ROLE ( '' ) ;
#359 = ORIENTED_EDGE ( 'NONE', *, *, #48, .F. ) ;
#360 = LOCAL_TIME ( 16, 25, 45.00000000000000000, #298 ) ;
#361 = APPLICATION_CONTEXT ( 'configuration controlled 3d designs of mechanical parts and assemblies' ) ;
#362 = ADVANCED_FACE ( 'NONE', ( #255, #183 ), #80, .F. ) ;
#363 = VERTEX_POINT ( 'NONE', #195 ) ;
#364 = ORIENTED_EDGE ( 'NONE', *, *, #305, .T. ) ;
#365 = DIRECTION ( 'NONE',  ( 1.000000000000000000, 0.0000000000000000000, 0.0000000000000000000 ) ) ;
#366 = PRODUCT_DEFINITION_FORMATION_WITH_SPECIFIED_SOURCE ( 'ÈÎºÎ', '', #35, .NOT_KNOWN. ) ;
#367 = EDGE_LOOP ( 'NONE', ( #364, #275, #194, #126 ) ) ;
#368 = PERSON_AND_ORGANIZATION ( #381, #399 ) ;
#369 = AXIS2_PLACEMENT_3D ( 'NONE', #121, #365, #304 ) ;
#370 = CARTESIAN_POINT ( 'NONE',  ( 87.70000000000000300, 12.69999999999999900, 0.0000000000000000000 ) ) ;
#371 = CARTESIAN_POINT ( 'NONE',  ( 0.0000000000000000000, 1.555301434917138400E-015, -12.69999999999999900 ) ) ;
#372 = AXIS2_PLACEMENT_3D ( 'NONE', #373, #152, #59 ) ;
#373 = CARTESIAN_POINT ( 'NONE',  ( 0.0000000000000000000, 0.0000000000000000000, 0.0000000000000000000 ) ) ;
#374 = VERTEX_POINT ( 'NONE', #42 ) ;
#375 = ORIENTED_EDGE ( 'NONE', *, *, #150, .T. ) ;
#376 = CARTESIAN_POINT ( 'NONE',  ( -1.925929944387235900E-031, 0.0000000000000000000, 0.0000000000000000000 ) ) ;
#377 = PERSON_AND_ORGANIZATION ( #381, #399 ) ;
#378 = CARTESIAN_POINT ( 'NONE',  ( 87.70000000000000300, 0.0000000000000000000, 12.69999999999999900 ) ) ;
#379 = MANIFOLD_SOLID_BREP ( 'Ðý×ª1', #260 ) ;
#380 = FACE_BOUND ( 'NONE', #12, .T. ) ;
#381 = PERSON ( 'Î´Ö¸¶¨', 'Î´Ö¸¶¨', 'Î´Ö¸¶¨', ('Î´Ö¸¶¨'), ('Î´Ö¸¶¨'), ('Î´Ö¸¶¨') ) ;
#382 = CYLINDRICAL_SURFACE ( 'NONE', #396, 12.69999999999999900 ) ;
#383 = DIRECTION ( 'NONE',  ( -1.000000000000000000, -0.0000000000000000000, -0.0000000000000000000 ) ) ;
#384 = CC_DESIGN_PERSON_AND_ORGANIZATION_ASSIGNMENT ( #271, #327, ( #35 ) ) ;
#385 = DIRECTION ( 'NONE',  ( -1.000000000000000000, -0.0000000000000000000, -0.0000000000000000000 ) ) ;
#386 = ORIENTED_EDGE ( 'NONE', *, *, #305, .F. ) ;
#387 = APPLICATION_CONTEXT ( 'configuration controlled 3d designs of mechanical parts and assemblies' ) ;
#388 = DIRECTION ( 'NONE',  ( 0.0000000000000000000, 0.0000000000000000000, 1.000000000000000000 ) ) ;
#389 = EDGE_CURVE ( 'NONE', #406, #295, #244, .T. ) ;
#390 = PLANE ( 'NONE',  #227 ) ;
#391 = LOCAL_TIME ( 16, 25, 45.00000000000000000, #337 ) ;
#392 = APPROVAL_STATUS ( 'not_yet_approved' ) ;
#393 = AXIS2_PLACEMENT_3D ( 'NONE', #204, #116, #336 ) ;
#394 = CIRCLE ( 'NONE', #353, 12.19999999999999900 ) ;
#395 = ORIENTED_EDGE ( 'NONE', *, *, #138, .T. ) ;
#396 = AXIS2_PLACEMENT_3D ( 'NONE', #398, #120, #129 ) ;
#397 = ADVANCED_FACE ( 'NONE', ( #328 ), #390, .F. ) ;
#398 = CARTESIAN_POINT ( 'NONE',  ( 0.0000000000000000000, 0.0000000000000000000, 0.0000000000000000000 ) ) ;
#399 = ORGANIZATION ( 'Î´Ö¸¶¨', 'Î´Ö¸¶¨', '' ) ;
#400 = CARTESIAN_POINT ( 'NONE',  ( 84.49999999999995700, 0.0000000000000000000, 0.0000000000000000000 ) ) ;
#401 = VERTEX_POINT ( 'NONE', #272 ) ;
#402 = CIRCLE ( 'NONE', #300, 12.50000000000000000 ) ;
#403 = VECTOR ( 'NONE', #205, 1000.000000000000000 ) ;
#404 = AXIS2_PLACEMENT_3D ( 'NONE', #156, #102, #188 ) ;
#405 = DIRECTION ( 'NONE',  ( -1.000000000000000000, -0.0000000000000000000, -0.0000000000000000000 ) ) ;
#406 = VERTEX_POINT ( 'NONE', #229 ) ;
#407 = DIRECTION ( 'NONE',  ( 0.0000000000000000000, 0.0000000000000000000, 1.000000000000000000 ) ) ;
#408 = AXIS2_PLACEMENT_3D ( 'NONE', #262, #137, #355 ) ;
#409 = ORIENTED_EDGE ( 'NONE', *, *, #65, .T. ) ;
#410 = CIRCLE ( 'NONE', #143, 12.19999999999999900 ) ;
#411 = DIRECTION ( 'NONE',  ( 0.0000000000000000000, 0.0000000000000000000, 1.000000000000000000 ) ) ;
#412 = DIRECTION ( 'NONE',  ( 0.0000000000000000000, 0.0000000000000000000, 1.000000000000000000 ) ) ;
#413 = DIRECTION ( 'NONE',  ( 0.0000000000000000000, 0.0000000000000000000, 1.000000000000000000 ) ) ;
#414 = EDGE_CURVE ( 'NONE', #50, #82, #357, .T. ) ;
#415 = DIRECTION ( 'NONE',  ( -1.000000000000000000, -0.0000000000000000000, -0.0000000000000000000 ) ) ;
ENDSEC;
END-ISO-10303-21;
