ISO-10303-21;
HEADER;
FILE_DESCRIPTION (( 'STEP AP203' ),
    '1' );
FILE_NAME ('WH10-620A-110.STEP',
    '2021-08-27T02:46:56',
    ( '' ),
    ( '' ),
    'SwSTEP 2.0',
    'SolidWorks 2017',
    '' );
FILE_SCHEMA (( 'CONFIG_CONTROL_DESIGN' ));
ENDSEC;

DATA;
#1 = ORIENTED_EDGE ( 'NONE', *, *, #293, .F. ) ;
#2 = VERTEX_POINT ( 'NONE', #119 ) ;
#3 = DIRECTION ( 'NONE',  ( 1.000000000000000000, 0.0000000000000000000, 0.0000000000000000000 ) ) ;
#4 = CARTESIAN_POINT ( 'NONE',  ( 0.0000000000000000000, 1.494069094959774000E-015, -12.20000000000002600 ) ) ;
#5 = COORDINATED_UNIVERSAL_TIME_OFFSET ( 8, 0, .AHEAD. ) ;
#6 = ORIENTED_EDGE ( 'NONE', *, *, #58, .F. ) ;
#7 = AXIS2_PLACEMENT_3D ( 'NONE', #44, #154, #231 ) ;
#8 = FACE_BOUND ( 'NONE', #149, .T. ) ;
#9 = ORIENTED_EDGE ( 'NONE', *, *, #250, .T. ) ;
#10 = MANIFOLD_SOLID_BREP ( 'Ðý×ª1', #92 ) ;
#11 = PERSON_AND_ORGANIZATION ( #146, #305 ) ;
#12 = ORIENTED_EDGE ( 'NONE', *, *, #95, .T. ) ;
#13 = CC_DESIGN_APPROVAL ( #72, ( #33 ) ) ;
#14 = DIRECTION ( 'NONE',  ( 0.0000000000000000000, 0.0000000000000000000, 1.000000000000000000 ) ) ;
#15 = LINE ( 'NONE', #4, #148 ) ;
#16 = ORIENTED_EDGE ( 'NONE', *, *, #169, .F. ) ;
#17 = DIRECTION ( 'NONE',  ( -1.000000000000000000, -0.0000000000000000000, -0.0000000000000000000 ) ) ;
#18 = CARTESIAN_POINT ( 'NONE',  ( 0.0000000000000000000, 0.0000000000000000000, 0.0000000000000000000 ) ) ;
#19 = DIRECTION ( 'NONE',  ( 0.0000000000000000000, 0.0000000000000000000, 1.000000000000000000 ) ) ;
#20 = VERTEX_POINT ( 'NONE', #194 ) ;
#21 = DIRECTION ( 'NONE',  ( -1.000000000000000000, -0.0000000000000000000, -0.0000000000000000000 ) ) ;
#22 = DIRECTION ( 'NONE',  ( -1.000000000000000000, -0.0000000000000000000, -0.0000000000000000000 ) ) ;
#23 = DIRECTION ( 'NONE',  ( -1.000000000000000000, 0.0000000000000000000, -0.0000000000000000000 ) ) ;
#24 = AXIS2_PLACEMENT_3D ( 'NONE', #236, #79, #316 ) ;
#25 = AXIS2_PLACEMENT_3D ( 'NONE', #202, #127, #309 ) ;
#26 = LOCAL_TIME ( 10, 46, 56.00000000000000000, #5 ) ;
#27 = PLANE ( 'NONE',  #140 ) ;
#28 = VERTEX_POINT ( 'NONE', #65 ) ;
#29 = CARTESIAN_POINT ( 'NONE',  ( 0.0000000000000000000, 0.0000000000000000000, 0.0000000000000000000 ) ) ;
#30 = DIRECTION ( 'NONE',  ( 0.0000000000000000000, 0.0000000000000000000, 1.000000000000000000 ) ) ;
#31 = ORIENTED_EDGE ( 'NONE', *, *, #78, .F. ) ;
#32 = ORIENTED_EDGE ( 'NONE', *, *, #113, .F. ) ;
#33 = PRODUCT_DEFINITION_FORMATION_WITH_SPECIFIED_SOURCE ( 'ÈÎºÎ', '', #302, .NOT_KNOWN. ) ;
#34 = AXIS2_PLACEMENT_3D ( 'NONE', #329, #124, #230 ) ;
#35 = FACE_OUTER_BOUND ( 'NONE', #192, .T. ) ;
#36 = LINE ( 'NONE', #303, #195 ) ;
#37 = ORIENTED_EDGE ( 'NONE', *, *, #142, .F. ) ;
#38 = PERSON_AND_ORGANIZATION ( #146, #305 ) ;
#39 = DIRECTION ( 'NONE',  ( -1.000000000000000000, -0.0000000000000000000, -0.0000000000000000000 ) ) ;
#40 = SHAPE_DEFINITION_REPRESENTATION ( #50, #304 ) ;
#41 = AXIS2_PLACEMENT_3D ( 'NONE', #143, #247, #322 ) ;
#42 = ORIENTED_EDGE ( 'NONE', *, *, #268, .F. ) ;
#43 = ORIENTED_EDGE ( 'NONE', *, *, #142, .T. ) ;
#44 = CARTESIAN_POINT ( 'NONE',  ( 185.6999999999999900, 0.0000000000000000000, 0.0000000000000000000 ) ) ;
#45 = CC_DESIGN_DATE_AND_TIME_ASSIGNMENT ( #54, #290, ( #110 ) ) ;
#46 = AXIS2_PLACEMENT_3D ( 'NONE', #207, #281, #258 ) ;
#47 = CARTESIAN_POINT ( 'NONE',  ( 0.0000000000000000000, 0.0000000000000000000, 0.0000000000000000000 ) ) ;
#48 = PERSON_AND_ORGANIZATION ( #146, #305 ) ;
#49 = VECTOR ( 'NONE', #126, 1000.000000000000000 ) ;
#50 = PRODUCT_DEFINITION_SHAPE ( 'NONE', 'NONE',  #57 ) ;
#51 = VERTEX_POINT ( 'NONE', #94 ) ;
#52 = ORIENTED_EDGE ( 'NONE', *, *, #151, .T. ) ;
#53 = APPROVAL_ROLE ( '' ) ;
#54 = DATE_AND_TIME ( #128, #190 ) ;
#55 = CIRCLE ( 'NONE', #257, 15.00000000000000000 ) ;
#56 = ADVANCED_FACE ( 'NONE', ( #284 ), #198, .T. ) ;
#57 = PRODUCT_DEFINITION ( 'Î´Öª', '', #33, #282 ) ;
#58 = EDGE_CURVE ( 'NONE', #2, #51, #141, .T. ) ;
#59 = CIRCLE ( 'NONE', #173, 12.20000000000002600 ) ;
#60 = EDGE_CURVE ( 'NONE', #229, #51, #228, .T. ) ;
#61 = PERSON_AND_ORGANIZATION ( #146, #305 ) ;
#62 = CC_DESIGN_PERSON_AND_ORGANIZATION_ASSIGNMENT ( #84, #208, ( #302 ) ) ;
#63 = DIRECTION ( 'NONE',  ( -1.000000000000000000, -0.0000000000000000000, -0.0000000000000000000 ) ) ;
#64 = DIRECTION ( 'NONE',  ( -1.000000000000000000, -0.0000000000000000000, -0.0000000000000000000 ) ) ;
#65 = CARTESIAN_POINT ( 'NONE',  ( 185.6999999999999900, 0.0000000000000000000, 12.20000000000002600 ) ) ;
#66 = VECTOR ( 'NONE', #125, 1000.000000000000000 ) ;
#67 = VERTEX_POINT ( 'NONE', #324 ) ;
#68 = DIRECTION ( 'NONE',  ( 0.0000000000000000000, 0.0000000000000000000, 1.000000000000000000 ) ) ;
#69 = COORDINATED_UNIVERSAL_TIME_OFFSET ( 8, 0, .AHEAD. ) ;
#70 = ORIENTED_EDGE ( 'NONE', *, *, #199, .F. ) ;
#71 = DIRECTION ( 'NONE',  ( -1.000000000000000000, -0.0000000000000000000, -0.0000000000000000000 ) ) ;
#72 = APPROVAL ( #287, 'Î´Ö¸¶¨' ) ;
#73 = EDGE_CURVE ( 'NONE', #153, #108, #129, .T. ) ;
#74 = CARTESIAN_POINT ( 'NONE',  ( 189.6999999999999900, 0.0000000000000000000, 0.0000000000000000000 ) ) ;
#75 = FACE_OUTER_BOUND ( 'NONE', #170, .T. ) ;
#76 = EDGE_LOOP ( 'NONE', ( #167, #9, #216, #138 ) ) ;
#77 = CARTESIAN_POINT ( 'NONE',  ( 0.0000000000000000000, 0.0000000000000000000, 15.00000000000000000 ) ) ;
#78 = EDGE_CURVE ( 'NONE', #67, #123, #248, .T. ) ;
#79 = DIRECTION ( 'NONE',  ( 0.0000000000000000000, 0.0000000000000000000, 1.000000000000000000 ) ) ;
#80 = PERSON_AND_ORGANIZATION ( #146, #305 ) ;
#81 = ADVANCED_FACE ( 'NONE', ( #35 ), #238, .T. ) ;
#82 = EDGE_LOOP ( 'NONE', ( #12, #249 ) ) ;
#83 = APPROVAL ( #105, 'Î´Ö¸¶¨' ) ;
#84 = PERSON_AND_ORGANIZATION ( #146, #305 ) ;
#85 = CIRCLE ( 'NONE', #325, 15.00000000000000000 ) ;
#86 = ADVANCED_FACE ( 'NONE', ( #75 ), #307, .F. ) ;
#87 = COORDINATED_UNIVERSAL_TIME_OFFSET ( 8, 0, .AHEAD. ) ;
#88 = ORIENTED_EDGE ( 'NONE', *, *, #237, .F. ) ;
#89 = APPROVAL_DATE_TIME ( #278, #83 ) ;
#90 = AXIS2_PLACEMENT_3D ( 'NONE', #223, #246, #93 ) ;
#91 = CIRCLE ( 'NONE', #196, 12.70000000000002600 ) ;
#92 = CLOSED_SHELL ( 'NONE', ( #189, #81, #112, #180, #56, #319, #165, #333, #101, #86 ) ) ;
#93 = DIRECTION ( 'NONE',  ( 0.0000000000000000000, 0.0000000000000000000, 1.000000000000000000 ) ) ;
#94 = CARTESIAN_POINT ( 'NONE',  ( 186.4999999999999700, 0.0000000000000000000, 12.70000000000002600 ) ) ;
#95 = EDGE_CURVE ( 'NONE', #28, #20, #160, .T. ) ;
#96 = CARTESIAN_POINT ( 'NONE',  ( 185.6999999999999900, 1.836970198721029600E-015, -15.00000000000000000 ) ) ;
#97 = FACE_OUTER_BOUND ( 'NONE', #286, .T. ) ;
#98 = DIRECTION ( 'NONE',  ( -1.000000000000000000, -0.0000000000000000000, -0.0000000000000000000 ) ) ;
#99 = DIRECTION ( 'NONE',  ( 0.0000000000000000000, 0.0000000000000000000, 1.000000000000000000 ) ) ;
#100 = AXIS2_PLACEMENT_3D ( 'NONE', #186, #263, #30 ) ;
#101 = ADVANCED_FACE ( 'NONE', ( #267 ), #215, .T. ) ;
#102 = CARTESIAN_POINT ( 'NONE',  ( 0.0000000000000000000, 0.0000000000000000000, 0.0000000000000000000 ) ) ;
#103 = CALENDAR_DATE ( 2021, 27, 8 ) ;
#104 = LINE ( 'NONE', #227, #49 ) ;
#105 = APPROVAL_STATUS ( 'not_yet_approved' ) ;
#106 = CARTESIAN_POINT ( 'NONE',  ( 186.4999999999999700, 12.20000000000002600, 0.0000000000000000000 ) ) ;
#107 = ORIENTED_EDGE ( 'NONE', *, *, #73, .F. ) ;
#108 = VERTEX_POINT ( 'NONE', #200 ) ;
#109 = CIRCLE ( 'NONE', #100, 12.70000000000002600 ) ;
#110 = SECURITY_CLASSIFICATION ( '', '', #209 ) ;
#111 = AXIS2_PLACEMENT_3D ( 'NONE', #18, #98, #277 ) ;
#112 = ADVANCED_FACE ( 'NONE', ( #176 ), #118, .T. ) ;
#113 = EDGE_CURVE ( 'NONE', #297, #145, #134, .T. ) ;
#114 = ORIENTED_EDGE ( 'NONE', *, *, #250, .F. ) ;
#115 = ORIENTED_EDGE ( 'NONE', *, *, #60, .T. ) ;
#116 =( GEOMETRIC_REPRESENTATION_CONTEXT ( 3 ) GLOBAL_UNCERTAINTY_ASSIGNED_CONTEXT ( ( #275 ) ) GLOBAL_UNIT_ASSIGNED_CONTEXT ( ( #233, #259, #285 ) ) REPRESENTATION_CONTEXT ( 'NONE', 'WORKASPACE' ) );
#117 = CARTESIAN_POINT ( 'NONE',  ( 0.0000000000000000000, 0.0000000000000000000, 0.0000000000000000000 ) ) ;
#118 = CYLINDRICAL_SURFACE ( 'NONE', #133, 15.00000000000000000 ) ;
#119 = CARTESIAN_POINT ( 'NONE',  ( 189.6999999999999900, 0.0000000000000000000, 12.70000000000002600 ) ) ;
#120 = DIRECTION ( 'NONE',  ( -1.000000000000000000, -0.0000000000000000000, -0.0000000000000000000 ) ) ;
#121 = DIRECTION ( 'NONE',  ( -1.000000000000000000, -0.0000000000000000000, -0.0000000000000000000 ) ) ;
#122 = VERTEX_POINT ( 'NONE', #181 ) ;
#123 = VERTEX_POINT ( 'NONE', #96 ) ;
#124 = DIRECTION ( 'NONE',  ( -1.000000000000000000, 0.0000000000000000000, -0.0000000000000000000 ) ) ;
#125 = DIRECTION ( 'NONE',  ( -1.000000000000000000, -0.0000000000000000000, -0.0000000000000000000 ) ) ;
#126 = DIRECTION ( 'NONE',  ( -1.000000000000000000, -0.0000000000000000000, -0.0000000000000000000 ) ) ;
#127 = DIRECTION ( 'NONE',  ( -1.000000000000000000, -0.0000000000000000000, -0.0000000000000000000 ) ) ;
#128 = CALENDAR_DATE ( 2021, 27, 8 ) ;
#129 = CIRCLE ( 'NONE', #90, 12.20000000000002600 ) ;
#130 = CARTESIAN_POINT ( 'NONE',  ( 0.0000000000000000000, 0.0000000000000000000, 12.20000000000002600 ) ) ;
#131 = DIRECTION ( 'NONE',  ( -1.000000000000000000, -0.0000000000000000000, -0.0000000000000000000 ) ) ;
#132 = CC_DESIGN_PERSON_AND_ORGANIZATION_ASSIGNMENT ( #48, #295, ( #110 ) ) ;
#133 = AXIS2_PLACEMENT_3D ( 'NONE', #308, #330, #178 ) ;
#134 = CIRCLE ( 'NONE', #111, 15.00000000000000000 ) ;
#135 = APPROVAL_ROLE ( '' ) ;
#136 = ORIENTED_EDGE ( 'NONE', *, *, #268, .T. ) ;
#137 = APPROVAL_DATE_TIME ( #193, #72 ) ;
#138 = ORIENTED_EDGE ( 'NONE', *, *, #60, .F. ) ;
#139 = PRODUCT_RELATED_PRODUCT_CATEGORY ( 'detail', '', ( #302 ) ) ;
#140 = AXIS2_PLACEMENT_3D ( 'NONE', #106, #3, #204 ) ;
#141 = LINE ( 'NONE', #271, #320 ) ;
#142 = EDGE_CURVE ( 'NONE', #108, #153, #59, .T. ) ;
#143 = CARTESIAN_POINT ( 'NONE',  ( 185.6999999999999900, 0.0000000000000000000, 0.0000000000000000000 ) ) ;
#144 = LOCAL_TIME ( 10, 46, 56.00000000000000000, #69 ) ;
#145 = VERTEX_POINT ( 'NONE', #334 ) ;
#146 = PERSON ( 'Î´Ö¸¶¨', 'Î´Ö¸¶¨', 'Î´Ö¸¶¨', ('Î´Ö¸¶¨'), ('Î´Ö¸¶¨'), ('Î´Ö¸¶¨') ) ;
#147 = AXIS2_PLACEMENT_3D ( 'NONE', #117, #63, #221 ) ;
#148 = VECTOR ( 'NONE', #131, 1000.000000000000000 ) ;
#149 = EDGE_LOOP ( 'NONE', ( #107, #37 ) ) ;
#150 = CARTESIAN_POINT ( 'NONE',  ( 0.0000000000000000000, 1.555301434917141600E-015, -12.70000000000002600 ) ) ;
#151 = EDGE_CURVE ( 'NONE', #67, #297, #104, .T. ) ;
#152 = LOCAL_TIME ( 10, 46, 56.00000000000000000, #218 ) ;
#153 = VERTEX_POINT ( 'NONE', #179 ) ;
#154 = DIRECTION ( 'NONE',  ( -1.000000000000000000, -0.0000000000000000000, -0.0000000000000000000 ) ) ;
#155 = DIRECTION ( 'NONE',  ( 0.0000000000000000000, 0.0000000000000000000, -1.000000000000000000 ) ) ;
#156 = CC_DESIGN_PERSON_AND_ORGANIZATION_ASSIGNMENT ( #332, #182, ( #33 ) ) ;
#157 = EDGE_CURVE ( 'NONE', #122, #229, #296, .T. ) ;
#158 = PERSON_AND_ORGANIZATION_ROLE ( 'creator' ) ;
#159 = DATE_AND_TIME ( #166, #152 ) ;
#160 = CIRCLE ( 'NONE', #242, 12.20000000000002600 ) ;
#161 = ORIENTED_EDGE ( 'NONE', *, *, #169, .T. ) ;
#162 = APPLICATION_CONTEXT ( 'configuration controlled 3d designs of mechanical parts and assemblies' ) ;
#163 = APPLICATION_CONTEXT ( 'configuration controlled 3d designs of mechanical parts and assemblies' ) ;
#164 = EDGE_LOOP ( 'NONE', ( #1, #43, #269, #306 ) ) ;
#165 = ADVANCED_FACE ( 'NONE', ( #318 ), #298, .T. ) ;
#166 = CALENDAR_DATE ( 2021, 27, 8 ) ;
#167 = ORIENTED_EDGE ( 'NONE', *, *, #157, .F. ) ;
#168 = ORIENTED_EDGE ( 'NONE', *, *, #78, .T. ) ;
#169 = EDGE_CURVE ( 'NONE', #123, #67, #85, .T. ) ;
#170 = EDGE_LOOP ( 'NONE', ( #70, #114 ) ) ;
#171 = ORIENTED_EDGE ( 'NONE', *, *, #217, .F. ) ;
#172 = CC_DESIGN_SECURITY_CLASSIFICATION ( #110, ( #33 ) ) ;
#173 = AXIS2_PLACEMENT_3D ( 'NONE', #253, #21, #99 ) ;
#174 = CARTESIAN_POINT ( 'NONE',  ( 186.4999999999999700, 0.0000000000000000000, 0.0000000000000000000 ) ) ;
#175 = COORDINATED_UNIVERSAL_TIME_OFFSET ( 8, 0, .AHEAD. ) ;
#176 = FACE_OUTER_BOUND ( 'NONE', #291, .T. ) ;
#177 = CARTESIAN_POINT ( 'NONE',  ( 0.0000000000000000000, 0.0000000000000000000, 0.0000000000000000000 ) ) ;
#178 = DIRECTION ( 'NONE',  ( 0.0000000000000000000, 0.0000000000000000000, 1.000000000000000000 ) ) ;
#179 = CARTESIAN_POINT ( 'NONE',  ( 186.4999999999999700, 0.0000000000000000000, 12.20000000000002600 ) ) ;
#180 = ADVANCED_FACE ( 'NONE', ( #224 ), #251, .F. ) ;
#181 = CARTESIAN_POINT ( 'NONE',  ( 189.6999999999999900, 1.555301434917141600E-015, -12.70000000000002600 ) ) ;
#182 = PERSON_AND_ORGANIZATION_ROLE ( 'design_supplier' ) ;
#183 = DIRECTION ( 'NONE',  ( -1.000000000000000000, -0.0000000000000000000, -0.0000000000000000000 ) ) ;
#184 = AXIS2_PLACEMENT_3D ( 'NONE', #177, #39, #273 ) ;
#185 = MECHANICAL_CONTEXT ( 'NONE', #162, 'mechanical' ) ;
#186 = CARTESIAN_POINT ( 'NONE',  ( 189.6999999999999900, 0.0000000000000000000, 0.0000000000000000000 ) ) ;
#187 = EDGE_CURVE ( 'NONE', #20, #28, #301, .T. ) ;
#188 = ORIENTED_EDGE ( 'NONE', *, *, #151, .F. ) ;
#189 = ADVANCED_FACE ( 'NONE', ( #97 ), #254, .T. ) ;
#190 = LOCAL_TIME ( 10, 46, 56.00000000000000000, #87 ) ;
#191 = LINE ( 'NONE', #130, #245 ) ;
#192 = EDGE_LOOP ( 'NONE', ( #225, #327, #299, #171 ) ) ;
#193 = DATE_AND_TIME ( #294, #26 ) ;
#194 = CARTESIAN_POINT ( 'NONE',  ( 185.6999999999999900, 1.494069094959774000E-015, -12.20000000000002600 ) ) ;
#195 = VECTOR ( 'NONE', #183, 1000.000000000000000 ) ;
#196 = AXIS2_PLACEMENT_3D ( 'NONE', #74, #71, #288 ) ;
#197 = APPROVAL_DATE_TIME ( #323, #300 ) ;
#198 = CYLINDRICAL_SURFACE ( 'NONE', #147, 15.00000000000000000 ) ;
#199 = EDGE_CURVE ( 'NONE', #2, #122, #109, .T. ) ;
#200 = CARTESIAN_POINT ( 'NONE',  ( 186.4999999999999700, 1.494069094959774000E-015, -12.20000000000002600 ) ) ;
#201 = EDGE_LOOP ( 'NONE', ( #136, #115 ) ) ;
#202 = CARTESIAN_POINT ( 'NONE',  ( 0.0000000000000000000, 0.0000000000000000000, 0.0000000000000000000 ) ) ;
#203 = AXIS2_PLACEMENT_3D ( 'NONE', #174, #120, #14 ) ;
#204 = DIRECTION ( 'NONE',  ( 0.0000000000000000000, 0.0000000000000000000, -1.000000000000000000 ) ) ;
#205 = APPLICATION_PROTOCOL_DEFINITION ( 'international standard', 'config_control_design', 1994, #162 ) ;
#206 = EDGE_LOOP ( 'NONE', ( #321, #240 ) ) ;
#207 = CARTESIAN_POINT ( 'NONE',  ( 186.4999999999999700, 0.0000000000000000000, 0.0000000000000000000 ) ) ;
#208 = PERSON_AND_ORGANIZATION_ROLE ( 'design_owner' ) ;
#209 = SECURITY_CLASSIFICATION_LEVEL ( 'unclassified' ) ;
#210 = APPROVAL_PERSON_ORGANIZATION ( #11, #300, #212 ) ;
#211 = ORIENTED_EDGE ( 'NONE', *, *, #199, .T. ) ;
#212 = APPROVAL_ROLE ( '' ) ;
#213 = LOCAL_TIME ( 10, 46, 56.00000000000000000, #175 ) ;
#214 = AXIS2_PLACEMENT_3D ( 'NONE', #47, #226, #155 ) ;
#215 = CYLINDRICAL_SURFACE ( 'NONE', #311, 12.70000000000002600 ) ;
#216 = ORIENTED_EDGE ( 'NONE', *, *, #58, .T. ) ;
#217 = EDGE_CURVE ( 'NONE', #153, #28, #191, .T. ) ;
#218 = COORDINATED_UNIVERSAL_TIME_OFFSET ( 8, 0, .AHEAD. ) ;
#219 = ORIENTED_EDGE ( 'NONE', *, *, #289, .F. ) ;
#220 = AXIS2_PLACEMENT_3D ( 'NONE', #102, #121, #19 ) ;
#221 = DIRECTION ( 'NONE',  ( 0.0000000000000000000, 0.0000000000000000000, 1.000000000000000000 ) ) ;
#222 = CALENDAR_DATE ( 2021, 27, 8 ) ;
#223 = CARTESIAN_POINT ( 'NONE',  ( 186.4999999999999700, 0.0000000000000000000, 0.0000000000000000000 ) ) ;
#224 = FACE_OUTER_BOUND ( 'NONE', #206, .T. ) ;
#225 = ORIENTED_EDGE ( 'NONE', *, *, #73, .T. ) ;
#226 = DIRECTION ( 'NONE',  ( 1.000000000000000000, 0.0000000000000000000, 0.0000000000000000000 ) ) ;
#227 = CARTESIAN_POINT ( 'NONE',  ( 0.0000000000000000000, 0.0000000000000000000, 15.00000000000000000 ) ) ;
#228 = CIRCLE ( 'NONE', #203, 12.70000000000002600 ) ;
#229 = VERTEX_POINT ( 'NONE', #313 ) ;
#230 = DIRECTION ( 'NONE',  ( -0.0000000000000000000, 0.0000000000000000000, 1.000000000000000000 ) ) ;
#231 = DIRECTION ( 'NONE',  ( 0.0000000000000000000, 0.0000000000000000000, 1.000000000000000000 ) ) ;
#232 = CARTESIAN_POINT ( 'NONE',  ( 185.6999999999999900, 0.0000000000000000000, 0.0000000000000000000 ) ) ;
#233 =( LENGTH_UNIT ( ) NAMED_UNIT ( * ) SI_UNIT ( .MILLI., .METRE. ) );
#234 = PLANE ( 'NONE',  #270 ) ;
#235 = DIRECTION ( 'NONE',  ( 0.0000000000000000000, 0.0000000000000000000, 1.000000000000000000 ) ) ;
#236 = CARTESIAN_POINT ( 'NONE',  ( 0.0000000000000000000, 0.0000000000000000000, 0.0000000000000000000 ) ) ;
#237 = EDGE_CURVE ( 'NONE', #123, #145, #36, .T. ) ;
#238 = CYLINDRICAL_SURFACE ( 'NONE', #184, 12.20000000000002600 ) ;
#239 = DIRECTION ( 'NONE',  ( -0.0000000000000000000, 0.0000000000000000000, 1.000000000000000000 ) ) ;
#240 = ORIENTED_EDGE ( 'NONE', *, *, #289, .T. ) ;
#241 = CC_DESIGN_DATE_AND_TIME_ASSIGNMENT ( #159, #335, ( #57 ) ) ;
#242 = AXIS2_PLACEMENT_3D ( 'NONE', #232, #17, #68 ) ;
#243 = APPROVAL_PERSON_ORGANIZATION ( #38, #72, #135 ) ;
#244 = ORIENTED_EDGE ( 'NONE', *, *, #157, .T. ) ;
#245 = VECTOR ( 'NONE', #280, 1000.000000000000000 ) ;
#246 = DIRECTION ( 'NONE',  ( -1.000000000000000000, -0.0000000000000000000, -0.0000000000000000000 ) ) ;
#247 = DIRECTION ( 'NONE',  ( -1.000000000000000000, -0.0000000000000000000, -0.0000000000000000000 ) ) ;
#248 = CIRCLE ( 'NONE', #41, 15.00000000000000000 ) ;
#249 = ORIENTED_EDGE ( 'NONE', *, *, #187, .T. ) ;
#250 = EDGE_CURVE ( 'NONE', #122, #2, #91, .T. ) ;
#251 = PLANE ( 'NONE',  #214 ) ;
#252 = DIRECTION ( 'NONE',  ( -1.000000000000000000, -0.0000000000000000000, -0.0000000000000000000 ) ) ;
#253 = CARTESIAN_POINT ( 'NONE',  ( 186.4999999999999700, 0.0000000000000000000, 0.0000000000000000000 ) ) ;
#254 = CYLINDRICAL_SURFACE ( 'NONE', #220, 12.70000000000002600 ) ;
#255 = DIRECTION ( 'NONE',  ( 0.0000000000000000000, 0.0000000000000000000, 1.000000000000000000 ) ) ;
#256 = CC_DESIGN_PERSON_AND_ORGANIZATION_ASSIGNMENT ( #61, #315, ( #33 ) ) ;
#257 = AXIS2_PLACEMENT_3D ( 'NONE', #29, #310, #235 ) ;
#258 = DIRECTION ( 'NONE',  ( 0.0000000000000000000, 0.0000000000000000000, 1.000000000000000000 ) ) ;
#259 =( NAMED_UNIT ( * ) PLANE_ANGLE_UNIT ( ) SI_UNIT ( $, .RADIAN. ) );
#260 = APPLICATION_PROTOCOL_DEFINITION ( 'international standard', 'config_control_design', 1994, #163 ) ;
#261 = CIRCLE ( 'NONE', #46, 12.70000000000002600 ) ;
#262 = ORIENTED_EDGE ( 'NONE', *, *, #237, .T. ) ;
#263 = DIRECTION ( 'NONE',  ( -1.000000000000000000, -0.0000000000000000000, -0.0000000000000000000 ) ) ;
#264 = APPROVAL_STATUS ( 'not_yet_approved' ) ;
#265 = PERSON_AND_ORGANIZATION ( #146, #305 ) ;
#266 = EDGE_LOOP ( 'NONE', ( #31, #16 ) ) ;
#267 = FACE_OUTER_BOUND ( 'NONE', #76, .T. ) ;
#268 = EDGE_CURVE ( 'NONE', #51, #229, #261, .T. ) ;
#269 = ORIENTED_EDGE ( 'NONE', *, *, #217, .T. ) ;
#270 = AXIS2_PLACEMENT_3D ( 'NONE', #314, #23, #239 ) ;
#271 = CARTESIAN_POINT ( 'NONE',  ( 0.0000000000000000000, 0.0000000000000000000, 12.70000000000002600 ) ) ;
#272 = FACE_OUTER_BOUND ( 'NONE', #266, .T. ) ;
#273 = DIRECTION ( 'NONE',  ( 0.0000000000000000000, 0.0000000000000000000, 1.000000000000000000 ) ) ;
#274 = DIRECTION ( 'NONE',  ( 0.0000000000000000000, 0.0000000000000000000, 1.000000000000000000 ) ) ;
#275 = UNCERTAINTY_MEASURE_WITH_UNIT (LENGTH_MEASURE( 1.000000000000000100E-005 ), #233, 'distance_accuracy_value', 'NONE');
#276 = CARTESIAN_POINT ( 'NONE',  ( 185.6999999999999900, 0.0000000000000000000, 0.0000000000000000000 ) ) ;
#277 = DIRECTION ( 'NONE',  ( 0.0000000000000000000, 0.0000000000000000000, 1.000000000000000000 ) ) ;
#278 = DATE_AND_TIME ( #103, #213 ) ;
#279 = EDGE_LOOP ( 'NONE', ( #88, #161, #52, #219 ) ) ;
#280 = DIRECTION ( 'NONE',  ( -1.000000000000000000, -0.0000000000000000000, -0.0000000000000000000 ) ) ;
#281 = DIRECTION ( 'NONE',  ( -1.000000000000000000, -0.0000000000000000000, -0.0000000000000000000 ) ) ;
#282 = DESIGN_CONTEXT ( 'detailed design', #163, 'design' ) ;
#283 = APPROVAL_PERSON_ORGANIZATION ( #265, #83, #53 ) ;
#284 = FACE_OUTER_BOUND ( 'NONE', #279, .T. ) ;
#285 =( NAMED_UNIT ( * ) SI_UNIT ( $, .STERADIAN. ) SOLID_ANGLE_UNIT ( ) );
#286 = EDGE_LOOP ( 'NONE', ( #211, #244, #42, #6 ) ) ;
#287 = APPROVAL_STATUS ( 'not_yet_approved' ) ;
#288 = DIRECTION ( 'NONE',  ( 0.0000000000000000000, 0.0000000000000000000, 1.000000000000000000 ) ) ;
#289 = EDGE_CURVE ( 'NONE', #145, #297, #55, .T. ) ;
#290 = DATE_TIME_ROLE ( 'classification_date' ) ;
#291 = EDGE_LOOP ( 'NONE', ( #168, #262, #32, #188 ) ) ;
#292 = CC_DESIGN_PERSON_AND_ORGANIZATION_ASSIGNMENT ( #80, #158, ( #57 ) ) ;
#293 = EDGE_CURVE ( 'NONE', #108, #20, #15, .T. ) ;
#294 = CALENDAR_DATE ( 2021, 27, 8 ) ;
#295 = PERSON_AND_ORGANIZATION_ROLE ( 'classification_officer' ) ;
#296 = LINE ( 'NONE', #150, #66 ) ;
#297 = VERTEX_POINT ( 'NONE', #77 ) ;
#298 = CYLINDRICAL_SURFACE ( 'NONE', #25, 12.20000000000002600 ) ;
#299 = ORIENTED_EDGE ( 'NONE', *, *, #95, .F. ) ;
#300 = APPROVAL ( #264, 'Î´Ö¸¶¨' ) ;
#301 = CIRCLE ( 'NONE', #7, 12.20000000000002600 ) ;
#302 = PRODUCT ( 'WH10-620A-110', 'WH10-620A-110', '', ( #185 ) ) ;
#303 = CARTESIAN_POINT ( 'NONE',  ( 0.0000000000000000000, 1.836970198721029600E-015, -15.00000000000000000 ) ) ;
#304 = ADVANCED_BREP_SHAPE_REPRESENTATION ( 'WH10-620A-110', ( #10, #24 ), #116 ) ;
#305 = ORGANIZATION ( 'Î´Ö¸¶¨', 'Î´Ö¸¶¨', '' ) ;
#306 = ORIENTED_EDGE ( 'NONE', *, *, #187, .F. ) ;
#307 = PLANE ( 'NONE',  #34 ) ;
#308 = CARTESIAN_POINT ( 'NONE',  ( 0.0000000000000000000, 0.0000000000000000000, 0.0000000000000000000 ) ) ;
#309 = DIRECTION ( 'NONE',  ( 0.0000000000000000000, 0.0000000000000000000, 1.000000000000000000 ) ) ;
#310 = DIRECTION ( 'NONE',  ( -1.000000000000000000, -0.0000000000000000000, -0.0000000000000000000 ) ) ;
#311 = AXIS2_PLACEMENT_3D ( 'NONE', #328, #252, #274 ) ;
#312 = FACE_BOUND ( 'NONE', #82, .T. ) ;
#313 = CARTESIAN_POINT ( 'NONE',  ( 186.4999999999999700, 1.555301434917141600E-015, -12.70000000000002600 ) ) ;
#314 = CARTESIAN_POINT ( 'NONE',  ( 185.6999999999999900, 15.00000000000000000, 0.0000000000000000000 ) ) ;
#315 = PERSON_AND_ORGANIZATION_ROLE ( 'creator' ) ;
#316 = DIRECTION ( 'NONE',  ( 1.000000000000000000, 0.0000000000000000000, 0.0000000000000000000 ) ) ;
#317 = CC_DESIGN_APPROVAL ( #300, ( #110 ) ) ;
#318 = FACE_OUTER_BOUND ( 'NONE', #164, .T. ) ;
#319 = ADVANCED_FACE ( 'NONE', ( #272, #312 ), #234, .F. ) ;
#320 = VECTOR ( 'NONE', #64, 1000.000000000000000 ) ;
#321 = ORIENTED_EDGE ( 'NONE', *, *, #113, .T. ) ;
#322 = DIRECTION ( 'NONE',  ( 0.0000000000000000000, 0.0000000000000000000, 1.000000000000000000 ) ) ;
#323 = DATE_AND_TIME ( #222, #144 ) ;
#324 = CARTESIAN_POINT ( 'NONE',  ( 185.6999999999999900, 0.0000000000000000000, 15.00000000000000000 ) ) ;
#325 = AXIS2_PLACEMENT_3D ( 'NONE', #276, #22, #255 ) ;
#326 = FACE_OUTER_BOUND ( 'NONE', #201, .T. ) ;
#327 = ORIENTED_EDGE ( 'NONE', *, *, #293, .T. ) ;
#328 = CARTESIAN_POINT ( 'NONE',  ( 0.0000000000000000000, 0.0000000000000000000, 0.0000000000000000000 ) ) ;
#329 = CARTESIAN_POINT ( 'NONE',  ( 189.6999999999999900, 12.70000000000002600, 0.0000000000000000000 ) ) ;
#330 = DIRECTION ( 'NONE',  ( -1.000000000000000000, -0.0000000000000000000, -0.0000000000000000000 ) ) ;
#331 = CC_DESIGN_APPROVAL ( #83, ( #57 ) ) ;
#332 = PERSON_AND_ORGANIZATION ( #146, #305 ) ;
#333 = ADVANCED_FACE ( 'NONE', ( #8, #326 ), #27, .F. ) ;
#334 = CARTESIAN_POINT ( 'NONE',  ( 0.0000000000000000000, 1.836970198721029600E-015, -15.00000000000000000 ) ) ;
#335 = DATE_TIME_ROLE ( 'creation_date' ) ;
ENDSEC;
END-ISO-10303-21;
