ISO-10303-21;
HEADER;
FILE_DESCRIPTION (( 'STEP AP203' ),
    '1' );
FILE_NAME ('WWL10-250A STEPÍ¼.STEP',
    '2019-10-28T06:48:03',
    ( '' ),
    ( '' ),
    'SwSTEP 2.0',
    'SolidWorks 2014',
    '' );
FILE_SCHEMA (( 'CONFIG_CONTROL_DESIGN' ));
ENDSEC;

DATA;
#1 = EDGE_LOOP ( 'NONE', ( #64, #331, #405, #59 ) ) ;
#2 = CARTESIAN_POINT ( 'NONE',  ( 116.6000000000000100, 0.0000000000000000000, 0.0000000000000000000 ) ) ;
#3 = FACE_OUTER_BOUND ( 'NONE', #147, .T. ) ;
#4 = DIRECTION ( 'NONE',  ( 0.0000000000000000000, 0.0000000000000000000, 1.000000000000000000 ) ) ;
#5 = CARTESIAN_POINT ( 'NONE',  ( 115.8000000000000100, 0.0000000000000000000, 12.19999999999999900 ) ) ;
#6 = CC_DESIGN_PERSON_AND_ORGANIZATION_ASSIGNMENT ( #358, #100, ( #124 ) ) ;
#7 = CARTESIAN_POINT ( 'NONE',  ( 119.8000000000000400, 1.555301434917138400E-015, -12.69999999999999900 ) ) ;
#8 = PRODUCT ( 'WWL10-250A STEPÍ¼', 'WWL10-250A STEPÍ¼', '', ( #226 ) ) ;
#9 = DIRECTION ( 'NONE',  ( -1.000000000000000000, -0.0000000000000000000, -0.0000000000000000000 ) ) ;
#10 = LINE ( 'NONE', #140, #365 ) ;
#11 = DIRECTION ( 'NONE',  ( -0.0000000000000000000, 0.0000000000000000000, 1.000000000000000000 ) ) ;
#12 = EDGE_LOOP ( 'NONE', ( #396, #388 ) ) ;
#13 = ORIENTED_EDGE ( 'NONE', *, *, #166, .T. ) ;
#14 = AXIS2_PLACEMENT_3D ( 'NONE', #2, #33, #415 ) ;
#15 = ORIENTED_EDGE ( 'NONE', *, *, #175, .T. ) ;
#16 = CYLINDRICAL_SURFACE ( 'NONE', #407, 8.000000000000000000 ) ;
#17 = CIRCLE ( 'NONE', #233, 12.99999999999999800 ) ;
#18 = AXIS2_PLACEMENT_3D ( 'NONE', #259, #72, #258 ) ;
#19 = ORIENTED_EDGE ( 'NONE', *, *, #341, .F. ) ;
#20 = DIRECTION ( 'NONE',  ( 0.0000000000000000000, 0.0000000000000000000, 1.000000000000000000 ) ) ;
#21 = ORIENTED_EDGE ( 'NONE', *, *, #305, .F. ) ;
#22 = ORIENTED_EDGE ( 'NONE', *, *, #326, .T. ) ;
#23 = DIRECTION ( 'NONE',  ( -1.000000000000000000, -0.0000000000000000000, -0.0000000000000000000 ) ) ;
#24 = APPROVAL_ROLE ( '' ) ;
#25 = CARTESIAN_POINT ( 'NONE',  ( 115.8000000000000400, 0.0000000000000000000, 0.0000000000000000000 ) ) ;
#26 = CC_DESIGN_SECURITY_CLASSIFICATION ( #302, ( #124 ) ) ;
#27 = VERTEX_POINT ( 'NONE', #52 ) ;
#28 = FACE_OUTER_BOUND ( 'NONE', #345, .T. ) ;
#29 = EDGE_CURVE ( 'NONE', #87, #27, #367, .T. ) ;
#30 = APPLICATION_CONTEXT ( 'configuration controlled 3d designs of mechanical parts and assemblies' ) ;
#31 = ORIENTED_EDGE ( 'NONE', *, *, #363, .T. ) ;
#32 = ADVANCED_FACE ( 'NONE', ( #246 ), #400, .T. ) ;
#33 = DIRECTION ( 'NONE',  ( -1.000000000000000000, -0.0000000000000000000, -0.0000000000000000000 ) ) ;
#34 = CYLINDRICAL_SURFACE ( 'NONE', #63, 12.19999999999999900 ) ;
#35 = AXIS2_PLACEMENT_3D ( 'NONE', #179, #114, #40 ) ;
#36 = DIRECTION ( 'NONE',  ( -1.000000000000000000, 0.0000000000000000000, -0.0000000000000000000 ) ) ;
#37 = ADVANCED_FACE ( 'NONE', ( #274 ), #343, .F. ) ;
#38 = ORIENTED_EDGE ( 'NONE', *, *, #383, .T. ) ;
#39 = EDGE_CURVE ( 'NONE', #232, #303, #210, .T. ) ;
#40 = DIRECTION ( 'NONE',  ( 0.0000000000000000000, 0.0000000000000000000, 1.000000000000000000 ) ) ;
#41 = ADVANCED_BREP_SHAPE_REPRESENTATION ( 'WWL10-250A STEPÍ¼', ( #339, #180 ), #379 ) ;
#42 = PERSON_AND_ORGANIZATION ( #176, #215 ) ;
#43 = DIRECTION ( 'NONE',  ( 0.0000000000000000000, 0.0000000000000000000, 1.000000000000000000 ) ) ;
#44 = LINE ( 'NONE', #111, #196 ) ;
#45 = DIRECTION ( 'NONE',  ( 0.0000000000000000000, 0.0000000000000000000, -1.000000000000000000 ) ) ;
#46 = DIRECTION ( 'NONE',  ( 0.0000000000000000000, 0.0000000000000000000, 1.000000000000000000 ) ) ;
#47 = VERTEX_POINT ( 'NONE', #282 ) ;
#48 = AXIS2_PLACEMENT_3D ( 'NONE', #146, #370, #182 ) ;
#49 = CARTESIAN_POINT ( 'NONE',  ( -2.582677165354323000, 0.0000000000000000000, 12.69999999999999900 ) ) ;
#50 = LOCAL_TIME ( 14, 48, 3.000000000000000000, #219 ) ;
#51 = CIRCLE ( 'NONE', #155, 12.19999999999999900 ) ;
#52 = CARTESIAN_POINT ( 'NONE',  ( 109.3000000000000000, 0.0000000000000000000, 13.00000000000000000 ) ) ;
#53 = ORIENTED_EDGE ( 'NONE', *, *, #371, .T. ) ;
#54 = APPROVAL ( #386, 'Î´Ö¸¶¨' ) ;
#55 = CALENDAR_DATE ( 2019, 28, 10 ) ;
#56 = FACE_OUTER_BOUND ( 'NONE', #313, .T. ) ;
#57 = EDGE_CURVE ( 'NONE', #110, #87, #297, .T. ) ;
#58 = DIRECTION ( 'NONE',  ( -1.000000000000000000, -0.0000000000000000000, -0.0000000000000000000 ) ) ;
#59 = ORIENTED_EDGE ( 'NONE', *, *, #126, .F. ) ;
#60 = CIRCLE ( 'NONE', #184, 12.99999999999999800 ) ;
#61 = DIRECTION ( 'NONE',  ( 0.0000000000000000000, 0.0000000000000000000, 1.000000000000000000 ) ) ;
#62 = DIRECTION ( 'NONE',  ( -1.000000000000000000, -0.0000000000000000000, -0.0000000000000000000 ) ) ;
#63 = AXIS2_PLACEMENT_3D ( 'NONE', #309, #156, #20 ) ;
#64 = ORIENTED_EDGE ( 'NONE', *, *, #254, .T. ) ;
#65 = DIRECTION ( 'NONE',  ( 0.0000000000000000000, 0.0000000000000000000, 1.000000000000000000 ) ) ;
#66 = CYLINDRICAL_SURFACE ( 'NONE', #414, 12.69999999999999900 ) ;
#67 = CARTESIAN_POINT ( 'NONE',  ( -2.582677165354323000, 1.494069094959770900E-015, -12.19999999999999900 ) ) ;
#68 = DIRECTION ( 'NONE',  ( 0.0000000000000000000, 0.0000000000000000000, 1.000000000000000000 ) ) ;
#69 = VERTEX_POINT ( 'NONE', #310 ) ;
#70 = APPLICATION_PROTOCOL_DEFINITION ( 'international standard', 'config_control_design', 1994, #30 ) ;
#71 = VECTOR ( 'NONE', #408, 1000.000000000000000 ) ;
#72 = DIRECTION ( 'NONE',  ( -1.000000000000000000, -0.0000000000000000000, -0.0000000000000000000 ) ) ;
#73 = CLOSED_SHELL ( 'NONE', ( #327, #355, #172, #384, #37, #32, #236, #291, #385, #95, #330, #203, #101 ) ) ;
#74 = DIRECTION ( 'NONE',  ( -1.000000000000000000, -0.0000000000000000000, -0.0000000000000000000 ) ) ;
#75 = PRODUCT_RELATED_PRODUCT_CATEGORY ( 'detail', '', ( #8 ) ) ;
#76 = CARTESIAN_POINT ( 'NONE',  ( 116.6000000000000100, 0.0000000000000000000, 0.0000000000000000000 ) ) ;
#77 = ORIENTED_EDGE ( 'NONE', *, *, #109, .T. ) ;
#78 = ORIENTED_EDGE ( 'NONE', *, *, #277, .T. ) ;
#79 = FACE_OUTER_BOUND ( 'NONE', #86, .T. ) ;
#80 = EDGE_LOOP ( 'NONE', ( #19, #81 ) ) ;
#81 = ORIENTED_EDGE ( 'NONE', *, *, #166, .F. ) ;
#82 = AXIS2_PLACEMENT_3D ( 'NONE', #319, #410, #247 ) ;
#83 = APPROVAL_PERSON_ORGANIZATION ( #256, #369, #220 ) ;
#84 = PERSON_AND_ORGANIZATION ( #176, #215 ) ;
#85 = EDGE_CURVE ( 'NONE', #304, #263, #51, .T. ) ;
#86 = EDGE_LOOP ( 'NONE', ( #189, #13, #77, #352 ) ) ;
#87 = VERTEX_POINT ( 'NONE', #279 ) ;
#88 = CARTESIAN_POINT ( 'NONE',  ( 109.3000000000000000, 9.797174393178825700E-016, -8.000000000000000000 ) ) ;
#89 = VERTEX_POINT ( 'NONE', #88 ) ;
#90 = EDGE_LOOP ( 'NONE', ( #177, #120 ) ) ;
#91 = LINE ( 'NONE', #67, #71 ) ;
#92 = PLANE ( 'NONE',  #173 ) ;
#93 = EDGE_LOOP ( 'NONE', ( #270, #289 ) ) ;
#94 = CARTESIAN_POINT ( 'NONE',  ( 116.6000000000000100, 0.0000000000000000000, 0.0000000000000000000 ) ) ;
#95 = ADVANCED_FACE ( 'NONE', ( #348 ), #34, .T. ) ;
#96 = EDGE_CURVE ( 'NONE', #89, #303, #372, .T. ) ;
#97 = PERSON_AND_ORGANIZATION ( #176, #215 ) ;
#98 = PERSON_AND_ORGANIZATION_ROLE ( 'design_owner' ) ;
#99 = LINE ( 'NONE', #178, #213 ) ;
#100 = PERSON_AND_ORGANIZATION_ROLE ( 'creator' ) ;
#101 = ADVANCED_FACE ( 'NONE', ( #335 ), #143, .F. ) ;
#102 = VERTEX_POINT ( 'NONE', #152 ) ;
#103 =( NAMED_UNIT ( * ) SI_UNIT ( $, .STERADIAN. ) SOLID_ANGLE_UNIT ( ) );
#104 = DATE_AND_TIME ( #285, #273 ) ;
#105 = LINE ( 'NONE', #398, #222 ) ;
#106 = APPROVAL ( #130, 'Î´Ö¸¶¨' ) ;
#107 = CARTESIAN_POINT ( 'NONE',  ( 0.0000000000000000000, 0.0000000000000000000, 0.0000000000000000000 ) ) ;
#108 = DIRECTION ( 'NONE',  ( 0.0000000000000000000, 0.0000000000000000000, 1.000000000000000000 ) ) ;
#109 = EDGE_CURVE ( 'NONE', #217, #402, #323, .T. ) ;
#110 = VERTEX_POINT ( 'NONE', #329 ) ;
#111 = CARTESIAN_POINT ( 'NONE',  ( -2.582677165354323000, 0.0000000000000000000, 8.000000000000000000 ) ) ;
#112 = PLANE ( 'NONE',  #397 ) ;
#113 = FACE_OUTER_BOUND ( 'NONE', #188, .T. ) ;
#114 = DIRECTION ( 'NONE',  ( -1.000000000000000000, -0.0000000000000000000, -0.0000000000000000000 ) ) ;
#115 = DIRECTION ( 'NONE',  ( -1.000000000000000000, -0.0000000000000000000, -0.0000000000000000000 ) ) ;
#116 = ORIENTED_EDGE ( 'NONE', *, *, #186, .T. ) ;
#117 = AXIS2_PLACEMENT_3D ( 'NONE', #139, #392, #11 ) ;
#118 = DESIGN_CONTEXT ( 'detailed design', #30, 'design' ) ;
#119 = CYLINDRICAL_SURFACE ( 'NONE', #394, 12.69999999999999900 ) ;
#120 = ORIENTED_EDGE ( 'NONE', *, *, #85, .F. ) ;
#121 = DIRECTION ( 'NONE',  ( 0.0000000000000000000, 0.0000000000000000000, 1.000000000000000000 ) ) ;
#122 = VECTOR ( 'NONE', #187, 1000.000000000000000 ) ;
#123 = DIRECTION ( 'NONE',  ( 0.0000000000000000000, 0.0000000000000000000, 1.000000000000000000 ) ) ;
#124 = PRODUCT_DEFINITION_FORMATION_WITH_SPECIFIED_SOURCE ( 'ÈÎºÎ', '', #8, .NOT_KNOWN. ) ;
#125 = CARTESIAN_POINT ( 'NONE',  ( 115.8000000000000400, 0.0000000000000000000, 0.0000000000000000000 ) ) ;
#126 = EDGE_CURVE ( 'NONE', #69, #27, #105, .T. ) ;
#127 = CARTESIAN_POINT ( 'NONE',  ( 116.6000000000000100, 12.19999999999999900, 0.0000000000000000000 ) ) ;
#128 = DATE_AND_TIME ( #296, #136 ) ;
#129 = VERTEX_POINT ( 'NONE', #5 ) ;
#130 = APPROVAL_STATUS ( 'not_yet_approved' ) ;
#131 = CALENDAR_DATE ( 2019, 28, 10 ) ;
#132 = AXIS2_PLACEMENT_3D ( 'NONE', #76, #74, #108 ) ;
#133 = DIRECTION ( 'NONE',  ( 0.0000000000000000000, 0.0000000000000000000, 1.000000000000000000 ) ) ;
#134 = ORIENTED_EDGE ( 'NONE', *, *, #363, .F. ) ;
#135 = CARTESIAN_POINT ( 'NONE',  ( 109.3000000000000000, 8.000000000000000000, 0.0000000000000000000 ) ) ;
#136 = LOCAL_TIME ( 14, 48, 3.000000000000000000, #221 ) ;
#137 = CIRCLE ( 'NONE', #316, 8.000000000000000000 ) ;
#138 = CARTESIAN_POINT ( 'NONE',  ( 116.6000000000000100, 0.0000000000000000000, 12.19999999999999900 ) ) ;
#139 = CARTESIAN_POINT ( 'NONE',  ( 119.8000000000000400, 12.69999999999999900, 0.0000000000000000000 ) ) ;
#140 = CARTESIAN_POINT ( 'NONE',  ( -2.582677165354323000, 1.555301434917138400E-015, -12.69999999999999900 ) ) ;
#141 = EDGE_CURVE ( 'NONE', #263, #129, #99, .T. ) ;
#142 = ORIENTED_EDGE ( 'NONE', *, *, #277, .F. ) ;
#143 = PLANE ( 'NONE',  #117 ) ;
#144 = LOCAL_TIME ( 14, 48, 3.000000000000000000, #249 ) ;
#145 = CYLINDRICAL_SURFACE ( 'NONE', #35, 12.99999999999999800 ) ;
#146 = CARTESIAN_POINT ( 'NONE',  ( -2.582677165354323000, 0.0000000000000000000, 0.0000000000000000000 ) ) ;
#147 = EDGE_LOOP ( 'NONE', ( #356, #389, #411, #231 ) ) ;
#148 = CC_DESIGN_APPROVAL ( #369, ( #302 ) ) ;
#149 = APPROVAL_DATE_TIME ( #234, #106 ) ;
#150 = EDGE_CURVE ( 'NONE', #27, #87, #239, .T. ) ;
#151 = EDGE_LOOP ( 'NONE', ( #53, #202 ) ) ;
#152 = CARTESIAN_POINT ( 'NONE',  ( 109.3000000000000000, 0.0000000000000000000, 8.000000000000000000 ) ) ;
#153 = DIRECTION ( 'NONE',  ( 1.000000000000000000, 0.0000000000000000000, 0.0000000000000000000 ) ) ;
#154 = CIRCLE ( 'NONE', #275, 12.69999999999999900 ) ;
#155 = AXIS2_PLACEMENT_3D ( 'NONE', #376, #185, #190 ) ;
#156 = DIRECTION ( 'NONE',  ( -1.000000000000000000, -0.0000000000000000000, -0.0000000000000000000 ) ) ;
#157 = CARTESIAN_POINT ( 'NONE',  ( 115.8000000000000100, 0.0000000000000000000, 0.0000000000000000000 ) ) ;
#158 = EDGE_LOOP ( 'NONE', ( #333, #31 ) ) ;
#159 = APPROVAL_PERSON_ORGANIZATION ( #368, #54, #24 ) ;
#160 = CALENDAR_DATE ( 2019, 28, 10 ) ;
#161 = DIRECTION ( 'NONE',  ( 0.0000000000000000000, 0.0000000000000000000, 1.000000000000000000 ) ) ;
#162 = AXIS2_PLACEMENT_3D ( 'NONE', #315, #62, #351 ) ;
#163 = DATE_TIME_ROLE ( 'classification_date' ) ;
#164 = DIRECTION ( 'NONE',  ( 1.000000000000000000, 0.0000000000000000000, 0.0000000000000000000 ) ) ;
#165 = ORIENTED_EDGE ( 'NONE', *, *, #341, .T. ) ;
#166 = EDGE_CURVE ( 'NONE', #208, #217, #154, .T. ) ;
#167 = VECTOR ( 'NONE', #115, 1000.000000000000000 ) ;
#168 = CARTESIAN_POINT ( 'NONE',  ( 116.6000000000000100, 0.0000000000000000000, 12.69999999999999900 ) ) ;
#169 = ORIENTED_EDGE ( 'NONE', *, *, #29, .F. ) ;
#170 = PRODUCT_DEFINITION_SHAPE ( 'NONE', 'NONE',  #308 ) ;
#171 = PLANE ( 'NONE',  #224 ) ;
#172 = ADVANCED_FACE ( 'NONE', ( #382 ), #145, .T. ) ;
#173 = AXIS2_PLACEMENT_3D ( 'NONE', #127, #164, #191 ) ;
#174 = APPLICATION_PROTOCOL_DEFINITION ( 'international standard', 'config_control_design', 1994, #292 ) ;
#175 = EDGE_CURVE ( 'NONE', #102, #89, #137, .T. ) ;
#176 = PERSON ( 'Î´Ö¸¶¨', 'Î´Ö¸¶¨', 'Î´Ö¸¶¨', ('Î´Ö¸¶¨'), ('Î´Ö¸¶¨'), ('Î´Ö¸¶¨') ) ;
#177 = ORIENTED_EDGE ( 'NONE', *, *, #284, .F. ) ;
#178 = CARTESIAN_POINT ( 'NONE',  ( -2.582677165354323000, 0.0000000000000000000, 12.19999999999999900 ) ) ;
#179 = CARTESIAN_POINT ( 'NONE',  ( -2.582677165354323000, 0.0000000000000000000, 0.0000000000000000000 ) ) ;
#180 = AXIS2_PLACEMENT_3D ( 'NONE', #107, #412, #200 ) ;
#181 = ORIENTED_EDGE ( 'NONE', *, *, #371, .F. ) ;
#182 = DIRECTION ( 'NONE',  ( 0.0000000000000000000, 0.0000000000000000000, 1.000000000000000000 ) ) ;
#183 = ORIENTED_EDGE ( 'NONE', *, *, #237, .T. ) ;
#184 = AXIS2_PLACEMENT_3D ( 'NONE', #125, #253, #65 ) ;
#185 = DIRECTION ( 'NONE',  ( -1.000000000000000000, -0.0000000000000000000, -0.0000000000000000000 ) ) ;
#186 = EDGE_CURVE ( 'NONE', #102, #232, #44, .T. ) ;
#187 = DIRECTION ( 'NONE',  ( -1.000000000000000000, -0.0000000000000000000, -0.0000000000000000000 ) ) ;
#188 = EDGE_LOOP ( 'NONE', ( #15, #403, #357, #212 ) ) ;
#189 = ORIENTED_EDGE ( 'NONE', *, *, #237, .F. ) ;
#190 = DIRECTION ( 'NONE',  ( 0.0000000000000000000, 0.0000000000000000000, 1.000000000000000000 ) ) ;
#191 = DIRECTION ( 'NONE',  ( 0.0000000000000000000, 0.0000000000000000000, -1.000000000000000000 ) ) ;
#192 = DIRECTION ( 'NONE',  ( -1.000000000000000000, -0.0000000000000000000, -0.0000000000000000000 ) ) ;
#193 = DIRECTION ( 'NONE',  ( -1.000000000000000000, -0.0000000000000000000, -0.0000000000000000000 ) ) ;
#194 = UNCERTAINTY_MEASURE_WITH_UNIT (LENGTH_MEASURE( 1.000000000000000100E-005 ), #322, 'distance_accuracy_value', 'NONE');
#195 = EDGE_CURVE ( 'NONE', #47, #402, #205, .T. ) ;
#196 = VECTOR ( 'NONE', #393, 1000.000000000000000 ) ;
#197 =( NAMED_UNIT ( * ) PLANE_ANGLE_UNIT ( ) SI_UNIT ( $, .RADIAN. ) );
#198 = CC_DESIGN_APPROVAL ( #106, ( #308 ) ) ;
#199 = CARTESIAN_POINT ( 'NONE',  ( 115.8000000000000300, 12.99999999999999800, 0.0000000000000000000 ) ) ;
#200 = DIRECTION ( 'NONE',  ( 1.000000000000000000, 0.0000000000000000000, 0.0000000000000000000 ) ) ;
#201 = CARTESIAN_POINT ( 'NONE',  ( -2.582677165354323000, 9.797174393178825700E-016, -8.000000000000000000 ) ) ;
#202 = ORIENTED_EDGE ( 'NONE', *, *, #195, .T. ) ;
#203 = ADVANCED_FACE ( 'NONE', ( #79 ), #119, .T. ) ;
#204 = AXIS2_PLACEMENT_3D ( 'NONE', #248, #192, #218 ) ;
#205 = CIRCLE ( 'NONE', #132, 12.69999999999999900 ) ;
#206 = DIRECTION ( 'NONE',  ( -1.000000000000000000, -0.0000000000000000000, -0.0000000000000000000 ) ) ;
#207 = AXIS2_PLACEMENT_3D ( 'NONE', #272, #306, #121 ) ;
#208 = VERTEX_POINT ( 'NONE', #7 ) ;
#209 = COORDINATED_UNIVERSAL_TIME_OFFSET ( 8, 0, .AHEAD. ) ;
#210 = CIRCLE ( 'NONE', #252, 8.000000000000000000 ) ;
#211 = AXIS2_PLACEMENT_3D ( 'NONE', #214, #153, #245 ) ;
#212 = ORIENTED_EDGE ( 'NONE', *, *, #186, .F. ) ;
#213 = VECTOR ( 'NONE', #269, 1000.000000000000000 ) ;
#214 = CARTESIAN_POINT ( 'NONE',  ( 0.0000000000000000000, 0.0000000000000000000, 0.0000000000000000000 ) ) ;
#215 = ORGANIZATION ( 'Î´Ö¸¶¨', 'Î´Ö¸¶¨', '' ) ;
#216 = CC_DESIGN_PERSON_AND_ORGANIZATION_ASSIGNMENT ( #391, #228, ( #308 ) ) ;
#217 = VERTEX_POINT ( 'NONE', #294 ) ;
#218 = DIRECTION ( 'NONE',  ( 0.0000000000000000000, 0.0000000000000000000, 1.000000000000000000 ) ) ;
#219 = COORDINATED_UNIVERSAL_TIME_OFFSET ( 8, 0, .AHEAD. ) ;
#220 = APPROVAL_ROLE ( '' ) ;
#221 = COORDINATED_UNIVERSAL_TIME_OFFSET ( 8, 0, .AHEAD. ) ;
#222 = VECTOR ( 'NONE', #262, 1000.000000000000000 ) ;
#223 = CARTESIAN_POINT ( 'NONE',  ( 116.6000000000000100, 1.494069094959770900E-015, -12.19999999999999900 ) ) ;
#224 = AXIS2_PLACEMENT_3D ( 'NONE', #199, #36, #290 ) ;
#225 = APPROVAL_STATUS ( 'not_yet_approved' ) ;
#226 = MECHANICAL_CONTEXT ( 'NONE', #292, 'mechanical' ) ;
#227 = VERTEX_POINT ( 'NONE', #395 ) ;
#228 = PERSON_AND_ORGANIZATION_ROLE ( 'creator' ) ;
#229 = FACE_BOUND ( 'NONE', #264, .T. ) ;
#230 = DIRECTION ( 'NONE',  ( 0.0000000000000000000, 0.0000000000000000000, 1.000000000000000000 ) ) ;
#231 = ORIENTED_EDGE ( 'NONE', *, *, #141, .F. ) ;
#232 = VERTEX_POINT ( 'NONE', #261 ) ;
#233 = AXIS2_PLACEMENT_3D ( 'NONE', #25, #381, #68 ) ;
#234 = DATE_AND_TIME ( #160, #242 ) ;
#235 = DIRECTION ( 'NONE',  ( 0.0000000000000000000, 0.0000000000000000000, 1.000000000000000000 ) ) ;
#236 = ADVANCED_FACE ( 'NONE', ( #413, #311 ), #112, .F. ) ;
#237 = EDGE_CURVE ( 'NONE', #208, #47, #10, .T. ) ;
#238 = FACE_BOUND ( 'NONE', #90, .T. ) ;
#239 = CIRCLE ( 'NONE', #373, 13.00000000000000000 ) ;
#240 = CC_DESIGN_APPROVAL ( #54, ( #124 ) ) ;
#241 = EDGE_CURVE ( 'NONE', #89, #102, #260, .T. ) ;
#242 = LOCAL_TIME ( 14, 48, 3.000000000000000000, #328 ) ;
#243 = EDGE_LOOP ( 'NONE', ( #165, #183, #181, #280 ) ) ;
#244 = PERSON_AND_ORGANIZATION_ROLE ( 'design_supplier' ) ;
#245 = DIRECTION ( 'NONE',  ( 0.0000000000000000000, 0.0000000000000000000, -1.000000000000000000 ) ) ;
#246 = FACE_OUTER_BOUND ( 'NONE', #276, .T. ) ;
#247 = DIRECTION ( 'NONE',  ( 0.0000000000000000000, 0.0000000000000000000, 1.000000000000000000 ) ) ;
#248 = CARTESIAN_POINT ( 'NONE',  ( 109.3000000000000000, 0.0000000000000000000, 0.0000000000000000000 ) ) ;
#249 = COORDINATED_UNIVERSAL_TIME_OFFSET ( 8, 0, .AHEAD. ) ;
#250 = CYLINDRICAL_SURFACE ( 'NONE', #82, 12.99999999999999800 ) ;
#251 = CARTESIAN_POINT ( 'NONE',  ( -2.582677165354323000, 0.0000000000000000000, 0.0000000000000000000 ) ) ;
#252 = AXIS2_PLACEMENT_3D ( 'NONE', #312, #58, #344 ) ;
#253 = DIRECTION ( 'NONE',  ( -1.000000000000000000, -0.0000000000000000000, -0.0000000000000000000 ) ) ;
#254 = EDGE_CURVE ( 'NONE', #69, #110, #17, .T. ) ;
#255 = CARTESIAN_POINT ( 'NONE',  ( 119.8000000000000400, 0.0000000000000000000, 0.0000000000000000000 ) ) ;
#256 = PERSON_AND_ORGANIZATION ( #176, #215 ) ;
#257 = CIRCLE ( 'NONE', #338, 12.19999999999999900 ) ;
#258 = DIRECTION ( 'NONE',  ( 0.0000000000000000000, 0.0000000000000000000, 1.000000000000000000 ) ) ;
#259 = CARTESIAN_POINT ( 'NONE',  ( 115.8000000000000100, 0.0000000000000000000, 0.0000000000000000000 ) ) ;
#260 = CIRCLE ( 'NONE', #204, 8.000000000000000000 ) ;
#261 = CARTESIAN_POINT ( 'NONE',  ( 0.0000000000000000000, 0.0000000000000000000, 8.000000000000000000 ) ) ;
#262 = DIRECTION ( 'NONE',  ( -1.000000000000000000, -0.0000000000000000000, -0.0000000000000000000 ) ) ;
#263 = VERTEX_POINT ( 'NONE', #138 ) ;
#264 = EDGE_LOOP ( 'NONE', ( #38, #22 ) ) ;
#265 = CC_DESIGN_PERSON_AND_ORGANIZATION_ASSIGNMENT ( #97, #98, ( #8 ) ) ;
#266 = CARTESIAN_POINT ( 'NONE',  ( -2.582677165354323000, 0.0000000000000000000, 0.0000000000000000000 ) ) ;
#267 = CIRCLE ( 'NONE', #387, 12.19999999999999900 ) ;
#268 = DIRECTION ( 'NONE',  ( -1.000000000000000000, -0.0000000000000000000, -0.0000000000000000000 ) ) ;
#269 = DIRECTION ( 'NONE',  ( -1.000000000000000000, -0.0000000000000000000, -0.0000000000000000000 ) ) ;
#270 = ORIENTED_EDGE ( 'NONE', *, *, #175, .F. ) ;
#271 = ORIENTED_EDGE ( 'NONE', *, *, #126, .T. ) ;
#272 = CARTESIAN_POINT ( 'NONE',  ( 109.3000000000000000, 0.0000000000000000000, 0.0000000000000000000 ) ) ;
#273 = LOCAL_TIME ( 14, 48, 3.000000000000000000, #209 ) ;
#274 = FACE_OUTER_BOUND ( 'NONE', #158, .T. ) ;
#275 = AXIS2_PLACEMENT_3D ( 'NONE', #336, #9, #43 ) ;
#276 = EDGE_LOOP ( 'NONE', ( #346, #374, #116, #134 ) ) ;
#277 = EDGE_CURVE ( 'NONE', #110, #69, #60, .T. ) ;
#278 = FACE_OUTER_BOUND ( 'NONE', #243, .T. ) ;
#279 = CARTESIAN_POINT ( 'NONE',  ( 109.3000000000000000, 1.592040838891559300E-015, -13.00000000000000200 ) ) ;
#280 = ORIENTED_EDGE ( 'NONE', *, *, #109, .F. ) ;
#281 = ORIENTED_EDGE ( 'NONE', *, *, #326, .F. ) ;
#282 = CARTESIAN_POINT ( 'NONE',  ( 116.6000000000000100, 1.555301434917138400E-015, -12.69999999999999900 ) ) ;
#283 = CC_DESIGN_PERSON_AND_ORGANIZATION_ASSIGNMENT ( #295, #244, ( #124 ) ) ;
#284 = EDGE_CURVE ( 'NONE', #263, #304, #267, .T. ) ;
#285 = CALENDAR_DATE ( 2019, 28, 10 ) ;
#286 = CC_DESIGN_PERSON_AND_ORGANIZATION_ASSIGNMENT ( #42, #317, ( #302 ) ) ;
#287 = SECURITY_CLASSIFICATION_LEVEL ( 'unclassified' ) ;
#288 = DATE_TIME_ROLE ( 'creation_date' ) ;
#289 = ORIENTED_EDGE ( 'NONE', *, *, #241, .F. ) ;
#290 = DIRECTION ( 'NONE',  ( -0.0000000000000000000, 0.0000000000000000000, 1.000000000000000000 ) ) ;
#291 = ADVANCED_FACE ( 'NONE', ( #28 ), #250, .T. ) ;
#292 = APPLICATION_CONTEXT ( 'configuration controlled 3d designs of mechanical parts and assemblies' ) ;
#293 = AXIS2_PLACEMENT_3D ( 'NONE', #255, #349, #161 ) ;
#294 = CARTESIAN_POINT ( 'NONE',  ( 119.8000000000000400, 0.0000000000000000000, 12.69999999999999900 ) ) ;
#295 = PERSON_AND_ORGANIZATION ( #176, #215 ) ;
#296 = CALENDAR_DATE ( 2019, 28, 10 ) ;
#297 = LINE ( 'NONE', #404, #122 ) ;
#298 = DIRECTION ( 'NONE',  ( -1.000000000000000000, -0.0000000000000000000, -0.0000000000000000000 ) ) ;
#299 = ORIENTED_EDGE ( 'NONE', *, *, #141, .T. ) ;
#300 = CARTESIAN_POINT ( 'NONE',  ( 109.3000000000000000, 0.0000000000000000000, 0.0000000000000000000 ) ) ;
#301 = SHAPE_DEFINITION_REPRESENTATION ( #170, #41 ) ;
#302 = SECURITY_CLASSIFICATION ( '', '', #287 ) ;
#303 = VERTEX_POINT ( 'NONE', #378 ) ;
#304 = VERTEX_POINT ( 'NONE', #223 ) ;
#305 = EDGE_CURVE ( 'NONE', #304, #227, #91, .T. ) ;
#306 = DIRECTION ( 'NONE',  ( -1.000000000000000000, -0.0000000000000000000, -0.0000000000000000000 ) ) ;
#307 = CIRCLE ( 'NONE', #14, 12.69999999999999900 ) ;
#308 = PRODUCT_DEFINITION ( 'Î´Öª', '', #124, #118 ) ;
#309 = CARTESIAN_POINT ( 'NONE',  ( -2.582677165354323000, 0.0000000000000000000, 0.0000000000000000000 ) ) ;
#310 = CARTESIAN_POINT ( 'NONE',  ( 115.8000000000000400, 0.0000000000000000000, 12.99999999999999800 ) ) ;
#311 = FACE_OUTER_BOUND ( 'NONE', #12, .T. ) ;
#312 = CARTESIAN_POINT ( 'NONE',  ( 0.0000000000000000000, 0.0000000000000000000, 0.0000000000000000000 ) ) ;
#313 = EDGE_LOOP ( 'NONE', ( #337, #142 ) ) ;
#314 = DIRECTION ( 'NONE',  ( -1.000000000000000000, -0.0000000000000000000, -0.0000000000000000000 ) ) ;
#315 = CARTESIAN_POINT ( 'NONE',  ( -2.582677165354323000, 0.0000000000000000000, 0.0000000000000000000 ) ) ;
#316 = AXIS2_PLACEMENT_3D ( 'NONE', #390, #206, #4 ) ;
#317 = PERSON_AND_ORGANIZATION_ROLE ( 'classification_officer' ) ;
#318 = CARTESIAN_POINT ( 'NONE',  ( -2.582677165354323000, 0.0000000000000000000, 0.0000000000000000000 ) ) ;
#319 = CARTESIAN_POINT ( 'NONE',  ( -2.582677165354323000, 0.0000000000000000000, 0.0000000000000000000 ) ) ;
#320 = APPROVAL_ROLE ( '' ) ;
#321 = APPROVAL_DATE_TIME ( #375, #369 ) ;
#322 =( LENGTH_UNIT ( ) NAMED_UNIT ( * ) SI_UNIT ( .MILLI., .METRE. ) );
#323 = LINE ( 'NONE', #49, #167 ) ;
#324 = CC_DESIGN_DATE_AND_TIME_ASSIGNMENT ( #104, #163, ( #302 ) ) ;
#325 = ORIENTED_EDGE ( 'NONE', *, *, #57, .F. ) ;
#326 = EDGE_CURVE ( 'NONE', #227, #129, #257, .T. ) ;
#327 = ADVANCED_FACE ( 'NONE', ( #278 ), #66, .T. ) ;
#328 = COORDINATED_UNIVERSAL_TIME_OFFSET ( 8, 0, .AHEAD. ) ;
#329 = CARTESIAN_POINT ( 'NONE',  ( 115.8000000000000400, 1.592040838891558900E-015, -12.99999999999999800 ) ) ;
#330 = ADVANCED_FACE ( 'NONE', ( #238, #334 ), #92, .F. ) ;
#331 = ORIENTED_EDGE ( 'NONE', *, *, #57, .T. ) ;
#332 = CC_DESIGN_DATE_AND_TIME_ASSIGNMENT ( #128, #288, ( #308 ) ) ;
#333 = ORIENTED_EDGE ( 'NONE', *, *, #39, .T. ) ;
#334 = FACE_OUTER_BOUND ( 'NONE', #151, .T. ) ;
#335 = FACE_OUTER_BOUND ( 'NONE', #80, .T. ) ;
#336 = CARTESIAN_POINT ( 'NONE',  ( 119.8000000000000400, 0.0000000000000000000, 0.0000000000000000000 ) ) ;
#337 = ORIENTED_EDGE ( 'NONE', *, *, #254, .F. ) ;
#338 = AXIS2_PLACEMENT_3D ( 'NONE', #157, #314, #353 ) ;
#339 = MANIFOLD_SOLID_BREP ( 'Ðý×ª1', #73 ) ;
#340 = ORIENTED_EDGE ( 'NONE', *, *, #85, .T. ) ;
#341 = EDGE_CURVE ( 'NONE', #217, #208, #380, .T. ) ;
#342 = DATE_AND_TIME ( #55, #50 ) ;
#343 = PLANE ( 'NONE',  #211 ) ;
#344 = DIRECTION ( 'NONE',  ( 0.0000000000000000000, 0.0000000000000000000, 1.000000000000000000 ) ) ;
#345 = EDGE_LOOP ( 'NONE', ( #325, #78, #271, #169 ) ) ;
#346 = ORIENTED_EDGE ( 'NONE', *, *, #96, .F. ) ;
#347 = EDGE_LOOP ( 'NONE', ( #21, #340, #299, #281 ) ) ;
#348 = FACE_OUTER_BOUND ( 'NONE', #347, .T. ) ;
#349 = DIRECTION ( 'NONE',  ( -1.000000000000000000, -0.0000000000000000000, -0.0000000000000000000 ) ) ;
#350 = CARTESIAN_POINT ( 'NONE',  ( 0.0000000000000000000, 0.0000000000000000000, 0.0000000000000000000 ) ) ;
#351 = DIRECTION ( 'NONE',  ( 0.0000000000000000000, 0.0000000000000000000, 1.000000000000000000 ) ) ;
#352 = ORIENTED_EDGE ( 'NONE', *, *, #195, .F. ) ;
#353 = DIRECTION ( 'NONE',  ( 0.0000000000000000000, 0.0000000000000000000, 1.000000000000000000 ) ) ;
#354 = CYLINDRICAL_SURFACE ( 'NONE', #162, 12.19999999999999900 ) ;
#355 = ADVANCED_FACE ( 'NONE', ( #3 ), #354, .T. ) ;
#356 = ORIENTED_EDGE ( 'NONE', *, *, #284, .T. ) ;
#357 = ORIENTED_EDGE ( 'NONE', *, *, #39, .F. ) ;
#358 = PERSON_AND_ORGANIZATION ( #176, #215 ) ;
#359 = DIRECTION ( 'NONE',  ( -1.000000000000000000, -0.0000000000000000000, -0.0000000000000000000 ) ) ;
#360 = AXIS2_PLACEMENT_3D ( 'NONE', #350, #193, #230 ) ;
#361 = DIRECTION ( 'NONE',  ( 1.000000000000000000, 0.0000000000000000000, 0.0000000000000000000 ) ) ;
#362 = DIRECTION ( 'NONE',  ( -1.000000000000000000, -0.0000000000000000000, -0.0000000000000000000 ) ) ;
#363 = EDGE_CURVE ( 'NONE', #303, #232, #399, .T. ) ;
#364 = CIRCLE ( 'NONE', #18, 12.19999999999999900 ) ;
#365 = VECTOR ( 'NONE', #362, 1000.000000000000000 ) ;
#366 = DIRECTION ( 'NONE',  ( -1.000000000000000000, -0.0000000000000000000, -0.0000000000000000000 ) ) ;
#367 = CIRCLE ( 'NONE', #207, 13.00000000000000000 ) ;
#368 = PERSON_AND_ORGANIZATION ( #176, #215 ) ;
#369 = APPROVAL ( #225, 'Î´Ö¸¶¨' ) ;
#370 = DIRECTION ( 'NONE',  ( -1.000000000000000000, -0.0000000000000000000, -0.0000000000000000000 ) ) ;
#371 = EDGE_CURVE ( 'NONE', #402, #47, #307, .T. ) ;
#372 = LINE ( 'NONE', #201, #377 ) ;
#373 = AXIS2_PLACEMENT_3D ( 'NONE', #300, #366, #46 ) ;
#374 = ORIENTED_EDGE ( 'NONE', *, *, #241, .T. ) ;
#375 = DATE_AND_TIME ( #131, #144 ) ;
#376 = CARTESIAN_POINT ( 'NONE',  ( 116.6000000000000100, 0.0000000000000000000, 0.0000000000000000000 ) ) ;
#377 = VECTOR ( 'NONE', #268, 1000.000000000000000 ) ;
#378 = CARTESIAN_POINT ( 'NONE',  ( 0.0000000000000000000, 9.797174393178825700E-016, -8.000000000000000000 ) ) ;
#379 =( GEOMETRIC_REPRESENTATION_CONTEXT ( 3 ) GLOBAL_UNCERTAINTY_ASSIGNED_CONTEXT ( ( #194 ) ) GLOBAL_UNIT_ASSIGNED_CONTEXT ( ( #322, #197, #103 ) ) REPRESENTATION_CONTEXT ( 'NONE', 'WORKASPACE' ) );
#380 = CIRCLE ( 'NONE', #293, 12.69999999999999900 ) ;
#381 = DIRECTION ( 'NONE',  ( -1.000000000000000000, -0.0000000000000000000, -0.0000000000000000000 ) ) ;
#382 = FACE_OUTER_BOUND ( 'NONE', #1, .T. ) ;
#383 = EDGE_CURVE ( 'NONE', #129, #227, #364, .T. ) ;
#384 = ADVANCED_FACE ( 'NONE', ( #113 ), #16, .T. ) ;
#385 = ADVANCED_FACE ( 'NONE', ( #56, #229 ), #171, .F. ) ;
#386 = APPROVAL_STATUS ( 'not_yet_approved' ) ;
#387 = AXIS2_PLACEMENT_3D ( 'NONE', #94, #23, #123 ) ;
#388 = ORIENTED_EDGE ( 'NONE', *, *, #29, .T. ) ;
#389 = ORIENTED_EDGE ( 'NONE', *, *, #305, .T. ) ;
#390 = CARTESIAN_POINT ( 'NONE',  ( 109.3000000000000000, 0.0000000000000000000, 0.0000000000000000000 ) ) ;
#391 = PERSON_AND_ORGANIZATION ( #176, #215 ) ;
#392 = DIRECTION ( 'NONE',  ( -1.000000000000000000, 0.0000000000000000000, -0.0000000000000000000 ) ) ;
#393 = DIRECTION ( 'NONE',  ( -1.000000000000000000, -0.0000000000000000000, -0.0000000000000000000 ) ) ;
#394 = AXIS2_PLACEMENT_3D ( 'NONE', #266, #298, #235 ) ;
#395 = CARTESIAN_POINT ( 'NONE',  ( 115.8000000000000100, 1.494069094959770900E-015, -12.19999999999999900 ) ) ;
#396 = ORIENTED_EDGE ( 'NONE', *, *, #150, .T. ) ;
#397 = AXIS2_PLACEMENT_3D ( 'NONE', #135, #361, #45 ) ;
#398 = CARTESIAN_POINT ( 'NONE',  ( -2.582677165354323000, 0.0000000000000000000, 12.99999999999999800 ) ) ;
#399 = CIRCLE ( 'NONE', #360, 8.000000000000000000 ) ;
#400 = CYLINDRICAL_SURFACE ( 'NONE', #48, 8.000000000000000000 ) ;
#401 = APPROVAL_DATE_TIME ( #342, #54 ) ;
#402 = VERTEX_POINT ( 'NONE', #168 ) ;
#403 = ORIENTED_EDGE ( 'NONE', *, *, #96, .T. ) ;
#404 = CARTESIAN_POINT ( 'NONE',  ( -2.582677165354323000, 1.592040838891558900E-015, -12.99999999999999800 ) ) ;
#405 = ORIENTED_EDGE ( 'NONE', *, *, #150, .F. ) ;
#406 = DIRECTION ( 'NONE',  ( -1.000000000000000000, -0.0000000000000000000, -0.0000000000000000000 ) ) ;
#407 = AXIS2_PLACEMENT_3D ( 'NONE', #251, #359, #133 ) ;
#408 = DIRECTION ( 'NONE',  ( -1.000000000000000000, -0.0000000000000000000, -0.0000000000000000000 ) ) ;
#409 = APPROVAL_PERSON_ORGANIZATION ( #84, #106, #320 ) ;
#410 = DIRECTION ( 'NONE',  ( -1.000000000000000000, -0.0000000000000000000, -0.0000000000000000000 ) ) ;
#411 = ORIENTED_EDGE ( 'NONE', *, *, #383, .F. ) ;
#412 = DIRECTION ( 'NONE',  ( 0.0000000000000000000, 0.0000000000000000000, 1.000000000000000000 ) ) ;
#413 = FACE_BOUND ( 'NONE', #93, .T. ) ;
#414 = AXIS2_PLACEMENT_3D ( 'NONE', #318, #406, #61 ) ;
#415 = DIRECTION ( 'NONE',  ( 0.0000000000000000000, 0.0000000000000000000, 1.000000000000000000 ) ) ;
ENDSEC;
END-ISO-10303-21;
