ISO-10303-21;
HEADER;
FILE_DESCRIPTION (( 'STEP AP203' ),
    '1' );
FILE_NAME ('WWL10-65ATN STEPÍ¼.STEP',
    '2019-10-28T06:27:43',
    ( '' ),
    ( '' ),
    'SwSTEP 2.0',
    'SolidWorks 2014',
    '' );
FILE_SCHEMA (( 'CONFIG_CONTROL_DESIGN' ));
ENDSEC;

DATA;
#1 = VERTEX_POINT ( 'NONE', #389 ) ;
#2 = ORIENTED_EDGE ( 'NONE', *, *, #44, .T. ) ;
#3 = CARTESIAN_POINT ( 'NONE',  ( -1.166666666666667400, 0.0000000000000000000, 12.19999999999999900 ) ) ;
#4 = DIRECTION ( 'NONE',  ( 0.0000000000000000000, 0.0000000000000000000, 1.000000000000000000 ) ) ;
#5 = CARTESIAN_POINT ( 'NONE',  ( 80.89999999999997700, 0.0000000000000000000, 0.0000000000000000000 ) ) ;
#6 = ORIENTED_EDGE ( 'NONE', *, *, #39, .F. ) ;
#7 = AXIS2_PLACEMENT_3D ( 'NONE', #304, #150, #370 ) ;
#8 = CIRCLE ( 'NONE', #350, 8.000000000000000000 ) ;
#9 = UNCERTAINTY_MEASURE_WITH_UNIT (LENGTH_MEASURE( 1.000000000000000100E-005 ), #245, 'distance_accuracy_value', 'NONE');
#10 = PERSON_AND_ORGANIZATION ( #392, #218 ) ;
#11 = AXIS2_PLACEMENT_3D ( 'NONE', #222, #50, #85 ) ;
#12 = DIRECTION ( 'NONE',  ( 0.0000000000000000000, 0.0000000000000000000, 1.000000000000000000 ) ) ;
#13 = ORIENTED_EDGE ( 'NONE', *, *, #208, .T. ) ;
#14 = DATE_TIME_ROLE ( 'classification_date' ) ;
#15 = LINE ( 'NONE', #107, #145 ) ;
#16 = CARTESIAN_POINT ( 'NONE',  ( 80.09999999999998000, 1.592040838891559100E-015, -13.00000000000000000 ) ) ;
#17 = APPROVAL_STATUS ( 'not_yet_approved' ) ;
#18 = CARTESIAN_POINT ( 'NONE',  ( 80.89999999999999100, 0.0000000000000000000, 12.19999999999999900 ) ) ;
#19 = APPROVAL_STATUS ( 'not_yet_approved' ) ;
#20 = DIRECTION ( 'NONE',  ( 0.0000000000000000000, 0.0000000000000000000, 1.000000000000000000 ) ) ;
#21 = CIRCLE ( 'NONE', #263, 13.00000000000000000 ) ;
#22 = EDGE_CURVE ( 'NONE', #73, #75, #169, .T. ) ;
#23 = CIRCLE ( 'NONE', #384, 8.000000000000000000 ) ;
#24 = PLANE ( 'NONE',  #373 ) ;
#25 = CARTESIAN_POINT ( 'NONE',  ( 0.0000000000000000000, 9.797174393178825700E-016, -8.000000000000000000 ) ) ;
#26 = VECTOR ( 'NONE', #410, 1000.000000000000000 ) ;
#27 = AXIS2_PLACEMENT_3D ( 'NONE', #112, #343, #279 ) ;
#28 = DIRECTION ( 'NONE',  ( 0.0000000000000000000, 0.0000000000000000000, 1.000000000000000000 ) ) ;
#29 = DIRECTION ( 'NONE',  ( 0.0000000000000000000, 0.0000000000000000000, 1.000000000000000000 ) ) ;
#30 = ORIENTED_EDGE ( 'NONE', *, *, #115, .F. ) ;
#31 = EDGE_CURVE ( 'NONE', #120, #37, #292, .T. ) ;
#32 = CALENDAR_DATE ( 2019, 28, 10 ) ;
#33 = ADVANCED_FACE ( 'NONE', ( #203, #133 ), #164, .F. ) ;
#34 = LINE ( 'NONE', #316, #364 ) ;
#35 = AXIS2_PLACEMENT_3D ( 'NONE', #277, #12, #186 ) ;
#36 = FACE_OUTER_BOUND ( 'NONE', #371, .T. ) ;
#37 = VERTEX_POINT ( 'NONE', #198 ) ;
#38 = APPROVAL_DATE_TIME ( #82, #306 ) ;
#39 = EDGE_CURVE ( 'NONE', #182, #56, #348, .T. ) ;
#40 = DIRECTION ( 'NONE',  ( 0.0000000000000000000, 0.0000000000000000000, 1.000000000000000000 ) ) ;
#41 = CC_DESIGN_DATE_AND_TIME_ASSIGNMENT ( #95, #375, ( #103 ) ) ;
#42 = VECTOR ( 'NONE', #344, 1000.000000000000000 ) ;
#43 = EDGE_LOOP ( 'NONE', ( #99, #207 ) ) ;
#44 = EDGE_CURVE ( 'NONE', #380, #256, #209, .T. ) ;
#45 = DATE_AND_TIME ( #32, #162 ) ;
#46 = CARTESIAN_POINT ( 'NONE',  ( 73.59999999999999400, 0.0000000000000000000, 0.0000000000000000000 ) ) ;
#47 = DESIGN_CONTEXT ( 'detailed design', #180, 'design' ) ;
#48 = FACE_OUTER_BOUND ( 'NONE', #221, .T. ) ;
#49 = EDGE_LOOP ( 'NONE', ( #268, #54 ) ) ;
#50 = DIRECTION ( 'NONE',  ( -1.000000000000000000, -0.0000000000000000000, -0.0000000000000000000 ) ) ;
#51 = CALENDAR_DATE ( 2019, 28, 10 ) ;
#52 = AXIS2_PLACEMENT_3D ( 'NONE', #193, #86, #223 ) ;
#53 = CARTESIAN_POINT ( 'NONE',  ( 80.10000000000000900, 1.494069094959770900E-015, -12.19999999999999900 ) ) ;
#54 = ORIENTED_EDGE ( 'NONE', *, *, #321, .F. ) ;
#55 = CARTESIAN_POINT ( 'NONE',  ( 73.59999999999999400, 0.0000000000000000000, 13.00000000000000000 ) ) ;
#56 = VERTEX_POINT ( 'NONE', #25 ) ;
#57 = APPROVAL_PERSON_ORGANIZATION ( #319, #306, #310 ) ;
#58 = PLANE ( 'NONE',  #404 ) ;
#59 = AXIS2_PLACEMENT_3D ( 'NONE', #230, #269, #329 ) ;
#60 = ADVANCED_FACE ( 'NONE', ( #285 ), #67, .T. ) ;
#61 = ORIENTED_EDGE ( 'NONE', *, *, #308, .T. ) ;
#62 = FACE_OUTER_BOUND ( 'NONE', #366, .T. ) ;
#63 = CC_DESIGN_PERSON_AND_ORGANIZATION_ASSIGNMENT ( #406, #104, ( #185 ) ) ;
#64 = ORIENTED_EDGE ( 'NONE', *, *, #290, .F. ) ;
#65 = APPROVAL_DATE_TIME ( #45, #391 ) ;
#66 = EDGE_CURVE ( 'NONE', #56, #1, #8, .T. ) ;
#67 = CYLINDRICAL_SURFACE ( 'NONE', #360, 12.19999999999999900 ) ;
#68 = ORIENTED_EDGE ( 'NONE', *, *, #321, .T. ) ;
#69 = ORIENTED_EDGE ( 'NONE', *, *, #173, .T. ) ;
#70 = CALENDAR_DATE ( 2019, 28, 10 ) ;
#71 = FACE_OUTER_BOUND ( 'NONE', #298, .T. ) ;
#72 = ORIENTED_EDGE ( 'NONE', *, *, #239, .F. ) ;
#73 = VERTEX_POINT ( 'NONE', #379 ) ;
#74 = MECHANICAL_CONTEXT ( 'NONE', #407, 'mechanical' ) ;
#75 = VERTEX_POINT ( 'NONE', #313 ) ;
#76 = CARTESIAN_POINT ( 'NONE',  ( 80.89999999999999100, 1.494069094959770900E-015, -12.19999999999999900 ) ) ;
#77 = LOCAL_TIME ( 14, 27, 43.00000000000000000, #354 ) ;
#78 = CARTESIAN_POINT ( 'NONE',  ( 80.89999999999999100, 0.0000000000000000000, 0.0000000000000000000 ) ) ;
#79 = DIRECTION ( 'NONE',  ( -1.000000000000000000, -0.0000000000000000000, -0.0000000000000000000 ) ) ;
#80 = CIRCLE ( 'NONE', #98, 8.000000000000000000 ) ;
#81 = ORIENTED_EDGE ( 'NONE', *, *, #318, .F. ) ;
#82 = DATE_AND_TIME ( #70, #296 ) ;
#83 = DIRECTION ( 'NONE',  ( -0.0000000000000000000, 0.0000000000000000000, 1.000000000000000000 ) ) ;
#84 = CIRCLE ( 'NONE', #237, 12.19999999999999900 ) ;
#85 = DIRECTION ( 'NONE',  ( 0.0000000000000000000, 0.0000000000000000000, 1.000000000000000000 ) ) ;
#86 = DIRECTION ( 'NONE',  ( -1.000000000000000000, -0.0000000000000000000, -0.0000000000000000000 ) ) ;
#87 = ORIENTED_EDGE ( 'NONE', *, *, #408, .T. ) ;
#88 = VERTEX_POINT ( 'NONE', #53 ) ;
#89 = AXIS2_PLACEMENT_3D ( 'NONE', #381, #122, #355 ) ;
#90 = DIRECTION ( 'NONE',  ( -1.000000000000000000, -0.0000000000000000000, -0.0000000000000000000 ) ) ;
#91 = CARTESIAN_POINT ( 'NONE',  ( 80.09999999999999400, 13.00000000000000000, 0.0000000000000000000 ) ) ;
#92 = CYLINDRICAL_SURFACE ( 'NONE', #89, 13.00000000000000000 ) ;
#93 = PRODUCT ( 'WWL10-65ATN STEPÍ¼', 'WWL10-65ATN STEPÍ¼', '', ( #74 ) ) ;
#94 = EDGE_LOOP ( 'NONE', ( #64, #102, #126, #275 ) ) ;
#95 = DATE_AND_TIME ( #190, #77 ) ;
#96 = EDGE_CURVE ( 'NONE', #325, #88, #34, .T. ) ;
#97 = CARTESIAN_POINT ( 'NONE',  ( 73.59999999999999400, 0.0000000000000000000, 0.0000000000000000000 ) ) ;
#98 = AXIS2_PLACEMENT_3D ( 'NONE', #386, #261, #4 ) ;
#99 = ORIENTED_EDGE ( 'NONE', *, *, #239, .T. ) ;
#100 = DIRECTION ( 'NONE',  ( 0.0000000000000000000, 0.0000000000000000000, 1.000000000000000000 ) ) ;
#101 = ORIENTED_EDGE ( 'NONE', *, *, #213, .F. ) ;
#102 = ORIENTED_EDGE ( 'NONE', *, *, #259, .T. ) ;
#103 = PRODUCT_DEFINITION ( 'Î´Öª', '', #185, #47 ) ;
#104 = PERSON_AND_ORGANIZATION_ROLE ( 'creator' ) ;
#105 = EDGE_LOOP ( 'NONE', ( #324, #155 ) ) ;
#106 = LINE ( 'NONE', #108, #26 ) ;
#107 = CARTESIAN_POINT ( 'NONE',  ( -1.166666666666667400, 1.592040838891559100E-015, -13.00000000000000000 ) ) ;
#108 = CARTESIAN_POINT ( 'NONE',  ( -1.166666666666667400, 0.0000000000000000000, 13.00000000000000000 ) ) ;
#109 = AXIS2_PLACEMENT_3D ( 'NONE', #372, #154, #413 ) ;
#110 = DIRECTION ( 'NONE',  ( 0.0000000000000000000, 0.0000000000000000000, 1.000000000000000000 ) ) ;
#111 = APPLICATION_PROTOCOL_DEFINITION ( 'international standard', 'config_control_design', 1994, #407 ) ;
#112 = CARTESIAN_POINT ( 'NONE',  ( 80.89999999999997700, 12.19999999999999900, 0.0000000000000000000 ) ) ;
#113 = APPROVAL_PERSON_ORGANIZATION ( #10, #391, #274 ) ;
#114 = CARTESIAN_POINT ( 'NONE',  ( -1.166666666666667400, 0.0000000000000000000, 12.69999999999999900 ) ) ;
#115 = EDGE_CURVE ( 'NONE', #256, #380, #412, .T. ) ;
#116 = PRODUCT_DEFINITION_SHAPE ( 'NONE', 'NONE',  #103 ) ;
#117 = CIRCLE ( 'NONE', #160, 12.69999999999999900 ) ;
#118 = ORIENTED_EDGE ( 'NONE', *, *, #96, .F. ) ;
#119 = DIRECTION ( 'NONE',  ( -1.000000000000000000, -0.0000000000000000000, -0.0000000000000000000 ) ) ;
#120 = VERTEX_POINT ( 'NONE', #55 ) ;
#121 = AXIS2_PLACEMENT_3D ( 'NONE', #307, #253, #40 ) ;
#122 = DIRECTION ( 'NONE',  ( -1.000000000000000000, -0.0000000000000000000, -0.0000000000000000000 ) ) ;
#123 = FACE_BOUND ( 'NONE', #234, .T. ) ;
#124 = ORIENTED_EDGE ( 'NONE', *, *, #115, .T. ) ;
#125 = DIRECTION ( 'NONE',  ( -1.000000000000000000, -0.0000000000000000000, -0.0000000000000000000 ) ) ;
#126 = ORIENTED_EDGE ( 'NONE', *, *, #361, .T. ) ;
#127 = PERSON_AND_ORGANIZATION ( #392, #218 ) ;
#128 = AXIS2_PLACEMENT_3D ( 'NONE', #226, #125, #200 ) ;
#129 = CYLINDRICAL_SURFACE ( 'NONE', #168, 12.69999999999999900 ) ;
#130 = DIRECTION ( 'NONE',  ( 0.0000000000000000000, 0.0000000000000000000, 1.000000000000000000 ) ) ;
#131 = CARTESIAN_POINT ( 'NONE',  ( 80.89999999999997700, 0.0000000000000000000, 0.0000000000000000000 ) ) ;
#132 = DIRECTION ( 'NONE',  ( -1.000000000000000000, -0.0000000000000000000, -0.0000000000000000000 ) ) ;
#133 = FACE_OUTER_BOUND ( 'NONE', #143, .T. ) ;
#134 = ORIENTED_EDGE ( 'NONE', *, *, #31, .F. ) ;
#135 = ORIENTED_EDGE ( 'NONE', *, *, #297, .F. ) ;
#136 = ORIENTED_EDGE ( 'NONE', *, *, #66, .T. ) ;
#137 = DIRECTION ( 'NONE',  ( -1.000000000000000000, -0.0000000000000000000, -0.0000000000000000000 ) ) ;
#138 = AXIS2_PLACEMENT_3D ( 'NONE', #283, #405, #211 ) ;
#139 = CLOSED_SHELL ( 'NONE', ( #231, #176, #175, #333, #358, #270, #33, #172, #205, #60, #390, #397, #167 ) ) ;
#140 = APPROVAL_PERSON_ORGANIZATION ( #127, #393, #181 ) ;
#141 = EDGE_CURVE ( 'NONE', #88, #289, #262, .T. ) ;
#142 = CIRCLE ( 'NONE', #210, 12.19999999999999900 ) ;
#143 = EDGE_LOOP ( 'NONE', ( #317, #61 ) ) ;
#144 = PERSON_AND_ORGANIZATION ( #392, #218 ) ;
#145 = VECTOR ( 'NONE', #369, 1000.000000000000000 ) ;
#146 = SECURITY_CLASSIFICATION_LEVEL ( 'unclassified' ) ;
#147 = DIRECTION ( 'NONE',  ( -1.000000000000000000, -0.0000000000000000000, -0.0000000000000000000 ) ) ;
#148 = DIRECTION ( 'NONE',  ( -1.000000000000000000, -0.0000000000000000000, -0.0000000000000000000 ) ) ;
#149 = APPLICATION_PROTOCOL_DEFINITION ( 'international standard', 'config_control_design', 1994, #180 ) ;
#150 = DIRECTION ( 'NONE',  ( -1.000000000000000000, -0.0000000000000000000, -0.0000000000000000000 ) ) ;
#151 = LOCAL_TIME ( 14, 27, 43.00000000000000000, #265 ) ;
#152 = PRODUCT_RELATED_PRODUCT_CATEGORY ( 'detail', '', ( #93 ) ) ;
#153 = FACE_OUTER_BOUND ( 'NONE', #195, .T. ) ;
#154 = DIRECTION ( 'NONE',  ( 1.000000000000000000, 0.0000000000000000000, 0.0000000000000000000 ) ) ;
#155 = ORIENTED_EDGE ( 'NONE', *, *, #259, .F. ) ;
#156 = DIRECTION ( 'NONE',  ( 0.0000000000000000000, 0.0000000000000000000, 1.000000000000000000 ) ) ;
#157 = DIRECTION ( 'NONE',  ( 0.0000000000000000000, 0.0000000000000000000, 1.000000000000000000 ) ) ;
#158 = ORIENTED_EDGE ( 'NONE', *, *, #208, .F. ) ;
#159 = DIRECTION ( 'NONE',  ( -1.000000000000000000, -0.0000000000000000000, -0.0000000000000000000 ) ) ;
#160 = AXIS2_PLACEMENT_3D ( 'NONE', #5, #388, #130 ) ;
#161 = CARTESIAN_POINT ( 'NONE',  ( 84.09999999999998000, 12.69999999999999900, 0.0000000000000000000 ) ) ;
#162 = LOCAL_TIME ( 14, 27, 43.00000000000000000, #240 ) ;
#163 = DIRECTION ( 'NONE',  ( 0.0000000000000000000, 0.0000000000000000000, 1.000000000000000000 ) ) ;
#164 = PLANE ( 'NONE',  #59 ) ;
#165 = DIRECTION ( 'NONE',  ( -1.000000000000000000, -0.0000000000000000000, -0.0000000000000000000 ) ) ;
#166 = CARTESIAN_POINT ( 'NONE',  ( -1.166666666666667400, 9.797174393178825700E-016, -8.000000000000000000 ) ) ;
#167 = ADVANCED_FACE ( 'NONE', ( #187 ), #24, .F. ) ;
#168 = AXIS2_PLACEMENT_3D ( 'NONE', #338, #147, #368 ) ;
#169 = CIRCLE ( 'NONE', #377, 12.69999999999999900 ) ;
#170 = DIRECTION ( 'NONE',  ( -1.000000000000000000, -0.0000000000000000000, -0.0000000000000000000 ) ) ;
#171 = EDGE_LOOP ( 'NONE', ( #328, #69 ) ) ;
#172 = ADVANCED_FACE ( 'NONE', ( #62 ), #252, .T. ) ;
#173 = EDGE_CURVE ( 'NONE', #75, #73, #117, .T. ) ;
#174 = PERSON_AND_ORGANIZATION ( #392, #218 ) ;
#175 = ADVANCED_FACE ( 'NONE', ( #153 ), #92, .T. ) ;
#176 = ADVANCED_FACE ( 'NONE', ( #71 ), #309, .T. ) ;
#177 = CIRCLE ( 'NONE', #138, 8.000000000000000000 ) ;
#178 = MANIFOLD_SOLID_BREP ( 'Ðý×ª1', #139 ) ;
#179 = FACE_OUTER_BOUND ( 'NONE', #336, .T. ) ;
#180 = APPLICATION_CONTEXT ( 'configuration controlled 3d designs of mechanical parts and assemblies' ) ;
#181 = APPROVAL_ROLE ( '' ) ;
#182 = VERTEX_POINT ( 'NONE', #352 ) ;
#183 = PLANE ( 'NONE',  #27 ) ;
#184 = CARTESIAN_POINT ( 'NONE',  ( -1.166666666666667400, 0.0000000000000000000, 0.0000000000000000000 ) ) ;
#185 = PRODUCT_DEFINITION_FORMATION_WITH_SPECIFIED_SOURCE ( 'ÈÎºÎ', '', #93, .NOT_KNOWN. ) ;
#186 = DIRECTION ( 'NONE',  ( 1.000000000000000000, 0.0000000000000000000, 0.0000000000000000000 ) ) ;
#187 = FACE_OUTER_BOUND ( 'NONE', #105, .T. ) ;
#188 = CARTESIAN_POINT ( 'NONE',  ( 84.09999999999998000, 0.0000000000000000000, 12.69999999999999900 ) ) ;
#189 = ORIENTED_EDGE ( 'NONE', *, *, #39, .T. ) ;
#190 = CALENDAR_DATE ( 2019, 28, 10 ) ;
#191 = DIRECTION ( 'NONE',  ( -1.000000000000000000, -0.0000000000000000000, -0.0000000000000000000 ) ) ;
#192 = VECTOR ( 'NONE', #132, 1000.000000000000000 ) ;
#193 = CARTESIAN_POINT ( 'NONE',  ( -1.166666666666667400, 0.0000000000000000000, 0.0000000000000000000 ) ) ;
#194 = CC_DESIGN_APPROVAL ( #391, ( #185 ) ) ;
#195 = EDGE_LOOP ( 'NONE', ( #2, #330, #134, #323 ) ) ;
#196 = EDGE_CURVE ( 'NONE', #1, #56, #23, .T. ) ;
#197 = ORIENTED_EDGE ( 'NONE', *, *, #202, .T. ) ;
#198 = CARTESIAN_POINT ( 'NONE',  ( 73.59999999999999400, 1.592040838891559100E-015, -13.00000000000000000 ) ) ;
#199 = CC_DESIGN_PERSON_AND_ORGANIZATION_ASSIGNMENT ( #326, #250, ( #103 ) ) ;
#200 = DIRECTION ( 'NONE',  ( 0.0000000000000000000, 0.0000000000000000000, 1.000000000000000000 ) ) ;
#201 = DIRECTION ( 'NONE',  ( 0.0000000000000000000, 0.0000000000000000000, 1.000000000000000000 ) ) ;
#202 = EDGE_CURVE ( 'NONE', #401, #182, #80, .T. ) ;
#203 = FACE_BOUND ( 'NONE', #49, .T. ) ;
#204 = ORIENTED_EDGE ( 'NONE', *, *, #228, .F. ) ;
#205 = ADVANCED_FACE ( 'NONE', ( #179, #395 ), #58, .F. ) ;
#206 = CC_DESIGN_PERSON_AND_ORGANIZATION_ASSIGNMENT ( #144, #337, ( #185 ) ) ;
#207 = ORIENTED_EDGE ( 'NONE', *, *, #141, .T. ) ;
#208 = EDGE_CURVE ( 'NONE', #401, #1, #232, .T. ) ;
#209 = CIRCLE ( 'NONE', #266, 13.00000000000000000 ) ;
#210 = AXIS2_PLACEMENT_3D ( 'NONE', #320, #351, #163 ) ;
#211 = DIRECTION ( 'NONE',  ( 0.0000000000000000000, 0.0000000000000000000, 1.000000000000000000 ) ) ;
#212 = LINE ( 'NONE', #242, #42 ) ;
#213 = EDGE_CURVE ( 'NONE', #325, #357, #142, .T. ) ;
#214 = VERTEX_POINT ( 'NONE', #227 ) ;
#215 = PERSON_AND_ORGANIZATION_ROLE ( 'design_owner' ) ;
#216 = ORIENTED_EDGE ( 'NONE', *, *, #213, .T. ) ;
#217 = DIRECTION ( 'NONE',  ( 0.0000000000000000000, 0.0000000000000000000, 1.000000000000000000 ) ) ;
#218 = ORGANIZATION ( 'Î´Ö¸¶¨', 'Î´Ö¸¶¨', '' ) ;
#219 = AXIS2_PLACEMENT_3D ( 'NONE', #376, #148, #411 ) ;
#220 = CARTESIAN_POINT ( 'NONE',  ( -1.166666666666667400, 0.0000000000000000000, 0.0000000000000000000 ) ) ;
#221 = EDGE_LOOP ( 'NONE', ( #382, #340, #233, #349 ) ) ;
#222 = CARTESIAN_POINT ( 'NONE',  ( 80.09999999999998000, 0.0000000000000000000, 0.0000000000000000000 ) ) ;
#223 = DIRECTION ( 'NONE',  ( 0.0000000000000000000, 0.0000000000000000000, 1.000000000000000000 ) ) ;
#224 = CIRCLE ( 'NONE', #219, 12.69999999999999900 ) ;
#225 = AXIS2_PLACEMENT_3D ( 'NONE', #184, #191, #217 ) ;
#226 = CARTESIAN_POINT ( 'NONE',  ( -1.166666666666667400, 0.0000000000000000000, 0.0000000000000000000 ) ) ;
#227 = CARTESIAN_POINT ( 'NONE',  ( 84.09999999999998000, 1.555301434917138400E-015, -12.69999999999999900 ) ) ;
#228 = EDGE_CURVE ( 'NONE', #357, #289, #238, .T. ) ;
#229 = CARTESIAN_POINT ( 'NONE',  ( 0.0000000000000000000, 0.0000000000000000000, 0.0000000000000000000 ) ) ;
#230 = CARTESIAN_POINT ( 'NONE',  ( 73.59999999999999400, 8.000000000000000000, 0.0000000000000000000 ) ) ;
#231 = ADVANCED_FACE ( 'NONE', ( #48 ), #356, .T. ) ;
#232 = LINE ( 'NONE', #264, #302 ) ;
#233 = ORIENTED_EDGE ( 'NONE', *, *, #22, .F. ) ;
#234 = EDGE_LOOP ( 'NONE', ( #81, #101 ) ) ;
#235 = AXIS2_PLACEMENT_3D ( 'NONE', #246, #409, #276 ) ;
#236 = ORIENTED_EDGE ( 'NONE', *, *, #228, .T. ) ;
#237 = AXIS2_PLACEMENT_3D ( 'NONE', #78, #345, #378 ) ;
#238 = LINE ( 'NONE', #3, #192 ) ;
#239 = EDGE_CURVE ( 'NONE', #289, #88, #314, .T. ) ;
#240 = COORDINATED_UNIVERSAL_TIME_OFFSET ( 8, 0, .AHEAD. ) ;
#241 = CARTESIAN_POINT ( 'NONE',  ( 73.59999999999999400, 0.0000000000000000000, 8.000000000000000000 ) ) ;
#242 = CARTESIAN_POINT ( 'NONE',  ( -1.166666666666667400, 1.555301434917138400E-015, -12.69999999999999900 ) ) ;
#243 = CIRCLE ( 'NONE', #235, 12.69999999999999900 ) ;
#244 = VERTEX_POINT ( 'NONE', #188 ) ;
#245 =( LENGTH_UNIT ( ) NAMED_UNIT ( * ) SI_UNIT ( .MILLI., .METRE. ) );
#246 = CARTESIAN_POINT ( 'NONE',  ( 84.09999999999998000, 0.0000000000000000000, 0.0000000000000000000 ) ) ;
#247 = EDGE_LOOP ( 'NONE', ( #197, #189, #311, #158 ) ) ;
#248 = DATE_AND_TIME ( #331, #346 ) ;
#249 = CC_DESIGN_PERSON_AND_ORGANIZATION_ASSIGNMENT ( #362, #303, ( #288 ) ) ;
#250 = PERSON_AND_ORGANIZATION_ROLE ( 'creator' ) ;
#251 = CARTESIAN_POINT ( 'NONE',  ( 80.09999999999998000, 0.0000000000000000000, 13.00000000000000000 ) ) ;
#252 = CYLINDRICAL_SURFACE ( 'NONE', #52, 13.00000000000000000 ) ;
#253 = DIRECTION ( 'NONE',  ( -1.000000000000000000, -0.0000000000000000000, -0.0000000000000000000 ) ) ;
#254 = ORIENTED_EDGE ( 'NONE', *, *, #66, .F. ) ;
#255 = COORDINATED_UNIVERSAL_TIME_OFFSET ( 8, 0, .AHEAD. ) ;
#256 = VERTEX_POINT ( 'NONE', #16 ) ;
#257 = ADVANCED_BREP_SHAPE_REPRESENTATION ( 'WWL10-65ATN STEPÍ¼', ( #178, #35 ), #363 ) ;
#258 = CARTESIAN_POINT ( 'NONE',  ( 0.0000000000000000000, 0.0000000000000000000, 0.0000000000000000000 ) ) ;
#259 = EDGE_CURVE ( 'NONE', #214, #244, #243, .T. ) ;
#260 = DIRECTION ( 'NONE',  ( -1.000000000000000000, 0.0000000000000000000, -0.0000000000000000000 ) ) ;
#261 = DIRECTION ( 'NONE',  ( -1.000000000000000000, -0.0000000000000000000, -0.0000000000000000000 ) ) ;
#262 = CIRCLE ( 'NONE', #365, 12.19999999999999900 ) ;
#263 = AXIS2_PLACEMENT_3D ( 'NONE', #46, #403, #20 ) ;
#264 = CARTESIAN_POINT ( 'NONE',  ( -1.166666666666667400, 0.0000000000000000000, 8.000000000000000000 ) ) ;
#265 = COORDINATED_UNIVERSAL_TIME_OFFSET ( 8, 0, .AHEAD. ) ;
#266 = AXIS2_PLACEMENT_3D ( 'NONE', #327, #294, #287 ) ;
#267 = FACE_OUTER_BOUND ( 'NONE', #374, .T. ) ;
#268 = ORIENTED_EDGE ( 'NONE', *, *, #202, .F. ) ;
#269 = DIRECTION ( 'NONE',  ( 1.000000000000000000, 0.0000000000000000000, 0.0000000000000000000 ) ) ;
#270 = ADVANCED_FACE ( 'NONE', ( #267 ), #295, .T. ) ;
#271 = CC_DESIGN_DATE_AND_TIME_ASSIGNMENT ( #399, #14, ( #288 ) ) ;
#272 = EDGE_LOOP ( 'NONE', ( #118, #216, #236, #315 ) ) ;
#273 =( NAMED_UNIT ( * ) PLANE_ANGLE_UNIT ( ) SI_UNIT ( $, .RADIAN. ) );
#274 = APPROVAL_ROLE ( '' ) ;
#275 = ORIENTED_EDGE ( 'NONE', *, *, #173, .F. ) ;
#276 = DIRECTION ( 'NONE',  ( 0.0000000000000000000, 0.0000000000000000000, 1.000000000000000000 ) ) ;
#277 = CARTESIAN_POINT ( 'NONE',  ( 0.0000000000000000000, 0.0000000000000000000, 0.0000000000000000000 ) ) ;
#278 =( NAMED_UNIT ( * ) SI_UNIT ( $, .STERADIAN. ) SOLID_ANGLE_UNIT ( ) );
#279 = DIRECTION ( 'NONE',  ( 0.0000000000000000000, 0.0000000000000000000, -1.000000000000000000 ) ) ;
#280 = DIRECTION ( 'NONE',  ( -1.000000000000000000, -0.0000000000000000000, -0.0000000000000000000 ) ) ;
#281 = ORIENTED_EDGE ( 'NONE', *, *, #44, .F. ) ;
#282 = EDGE_CURVE ( 'NONE', #244, #214, #224, .T. ) ;
#283 = CARTESIAN_POINT ( 'NONE',  ( 73.59999999999999400, 0.0000000000000000000, 0.0000000000000000000 ) ) ;
#284 = CC_DESIGN_APPROVAL ( #393, ( #103 ) ) ;
#285 = FACE_OUTER_BOUND ( 'NONE', #272, .T. ) ;
#286 = VECTOR ( 'NONE', #280, 1000.000000000000000 ) ;
#287 = DIRECTION ( 'NONE',  ( 0.0000000000000000000, 0.0000000000000000000, 1.000000000000000000 ) ) ;
#288 = SECURITY_CLASSIFICATION ( '', '', #146 ) ;
#289 = VERTEX_POINT ( 'NONE', #301 ) ;
#290 = EDGE_CURVE ( 'NONE', #214, #75, #212, .T. ) ;
#291 = DIRECTION ( 'NONE',  ( -0.0000000000000000000, 0.0000000000000000000, 1.000000000000000000 ) ) ;
#292 = CIRCLE ( 'NONE', #335, 13.00000000000000000 ) ;
#293 = CC_DESIGN_PERSON_AND_ORGANIZATION_ASSIGNMENT ( #174, #215, ( #93 ) ) ;
#294 = DIRECTION ( 'NONE',  ( -1.000000000000000000, -0.0000000000000000000, -0.0000000000000000000 ) ) ;
#295 = CYLINDRICAL_SURFACE ( 'NONE', #121, 8.000000000000000000 ) ;
#296 = LOCAL_TIME ( 14, 27, 43.00000000000000000, #387 ) ;
#297 = EDGE_CURVE ( 'NONE', #256, #37, #15, .T. ) ;
#298 = EDGE_LOOP ( 'NONE', ( #398, #402, #72, #204 ) ) ;
#299 = APPROVAL_DATE_TIME ( #248, #393 ) ;
#300 = SHAPE_DEFINITION_REPRESENTATION ( #116, #257 ) ;
#301 = CARTESIAN_POINT ( 'NONE',  ( 80.10000000000000900, 0.0000000000000000000, 12.19999999999999900 ) ) ;
#302 = VECTOR ( 'NONE', #322, 1000.000000000000000 ) ;
#303 = PERSON_AND_ORGANIZATION_ROLE ( 'classification_officer' ) ;
#304 = CARTESIAN_POINT ( 'NONE',  ( 80.10000000000000900, 0.0000000000000000000, 0.0000000000000000000 ) ) ;
#305 = CARTESIAN_POINT ( 'NONE',  ( -1.166666666666667400, 0.0000000000000000000, 0.0000000000000000000 ) ) ;
#306 = APPROVAL ( #341, 'Î´Ö¸¶¨' ) ;
#307 = CARTESIAN_POINT ( 'NONE',  ( -1.166666666666667400, 0.0000000000000000000, 0.0000000000000000000 ) ) ;
#308 = EDGE_CURVE ( 'NONE', #37, #120, #21, .T. ) ;
#309 = CYLINDRICAL_SURFACE ( 'NONE', #128, 12.19999999999999900 ) ;
#310 = APPROVAL_ROLE ( '' ) ;
#311 = ORIENTED_EDGE ( 'NONE', *, *, #196, .F. ) ;
#312 = LINE ( 'NONE', #114, #286 ) ;
#313 = CARTESIAN_POINT ( 'NONE',  ( 80.89999999999997700, 1.555301434917138400E-015, -12.69999999999999900 ) ) ;
#314 = CIRCLE ( 'NONE', #7, 12.19999999999999900 ) ;
#315 = ORIENTED_EDGE ( 'NONE', *, *, #141, .F. ) ;
#316 = CARTESIAN_POINT ( 'NONE',  ( -1.166666666666667400, 1.494069094959770900E-015, -12.19999999999999900 ) ) ;
#317 = ORIENTED_EDGE ( 'NONE', *, *, #31, .T. ) ;
#318 = EDGE_CURVE ( 'NONE', #357, #325, #84, .T. ) ;
#319 = PERSON_AND_ORGANIZATION ( #392, #218 ) ;
#320 = CARTESIAN_POINT ( 'NONE',  ( 80.89999999999999100, 0.0000000000000000000, 0.0000000000000000000 ) ) ;
#321 = EDGE_CURVE ( 'NONE', #182, #401, #177, .T. ) ;
#322 = DIRECTION ( 'NONE',  ( -1.000000000000000000, -0.0000000000000000000, -0.0000000000000000000 ) ) ;
#323 = ORIENTED_EDGE ( 'NONE', *, *, #408, .F. ) ;
#324 = ORIENTED_EDGE ( 'NONE', *, *, #282, .F. ) ;
#325 = VERTEX_POINT ( 'NONE', #76 ) ;
#326 = PERSON_AND_ORGANIZATION ( #392, #218 ) ;
#327 = CARTESIAN_POINT ( 'NONE',  ( 80.09999999999998000, 0.0000000000000000000, 0.0000000000000000000 ) ) ;
#328 = ORIENTED_EDGE ( 'NONE', *, *, #22, .T. ) ;
#329 = DIRECTION ( 'NONE',  ( 0.0000000000000000000, 0.0000000000000000000, -1.000000000000000000 ) ) ;
#330 = ORIENTED_EDGE ( 'NONE', *, *, #297, .T. ) ;
#331 = CALENDAR_DATE ( 2019, 28, 10 ) ;
#332 = CC_DESIGN_APPROVAL ( #306, ( #288 ) ) ;
#333 = ADVANCED_FACE ( 'NONE', ( #347 ), #383, .T. ) ;
#334 = VECTOR ( 'NONE', #170, 1000.000000000000000 ) ;
#335 = AXIS2_PLACEMENT_3D ( 'NONE', #97, #137, #100 ) ;
#336 = EDGE_LOOP ( 'NONE', ( #281, #30 ) ) ;
#337 = PERSON_AND_ORGANIZATION_ROLE ( 'design_supplier' ) ;
#338 = CARTESIAN_POINT ( 'NONE',  ( -1.166666666666667400, 0.0000000000000000000, 0.0000000000000000000 ) ) ;
#339 = AXIS2_PLACEMENT_3D ( 'NONE', #305, #79, #110 ) ;
#340 = ORIENTED_EDGE ( 'NONE', *, *, #290, .T. ) ;
#341 = APPROVAL_STATUS ( 'not_yet_approved' ) ;
#342 = PLANE ( 'NONE',  #109 ) ;
#343 = DIRECTION ( 'NONE',  ( 1.000000000000000000, 0.0000000000000000000, 0.0000000000000000000 ) ) ;
#344 = DIRECTION ( 'NONE',  ( -1.000000000000000000, -0.0000000000000000000, -0.0000000000000000000 ) ) ;
#345 = DIRECTION ( 'NONE',  ( -1.000000000000000000, -0.0000000000000000000, -0.0000000000000000000 ) ) ;
#346 = LOCAL_TIME ( 14, 27, 43.00000000000000000, #255 ) ;
#347 = FACE_OUTER_BOUND ( 'NONE', #247, .T. ) ;
#348 = LINE ( 'NONE', #166, #334 ) ;
#349 = ORIENTED_EDGE ( 'NONE', *, *, #361, .F. ) ;
#350 = AXIS2_PLACEMENT_3D ( 'NONE', #258, #90, #156 ) ;
#351 = DIRECTION ( 'NONE',  ( -1.000000000000000000, -0.0000000000000000000, -0.0000000000000000000 ) ) ;
#352 = CARTESIAN_POINT ( 'NONE',  ( 73.59999999999999400, 9.797174393178825700E-016, -8.000000000000000000 ) ) ;
#353 = DIRECTION ( 'NONE',  ( -1.000000000000000000, -0.0000000000000000000, -0.0000000000000000000 ) ) ;
#354 = COORDINATED_UNIVERSAL_TIME_OFFSET ( 8, 0, .AHEAD. ) ;
#355 = DIRECTION ( 'NONE',  ( 0.0000000000000000000, 0.0000000000000000000, 1.000000000000000000 ) ) ;
#356 = CYLINDRICAL_SURFACE ( 'NONE', #225, 12.69999999999999900 ) ;
#357 = VERTEX_POINT ( 'NONE', #18 ) ;
#358 = ADVANCED_FACE ( 'NONE', ( #36 ), #342, .F. ) ;
#359 = FACE_OUTER_BOUND ( 'NONE', #94, .T. ) ;
#360 = AXIS2_PLACEMENT_3D ( 'NONE', #220, #159, #28 ) ;
#361 = EDGE_CURVE ( 'NONE', #244, #73, #312, .T. ) ;
#362 = PERSON_AND_ORGANIZATION ( #392, #218 ) ;
#363 =( GEOMETRIC_REPRESENTATION_CONTEXT ( 3 ) GLOBAL_UNCERTAINTY_ASSIGNED_CONTEXT ( ( #9 ) ) GLOBAL_UNIT_ASSIGNED_CONTEXT ( ( #245, #273, #278 ) ) REPRESENTATION_CONTEXT ( 'NONE', 'WORKASPACE' ) );
#364 = VECTOR ( 'NONE', #415, 1000.000000000000000 ) ;
#365 = AXIS2_PLACEMENT_3D ( 'NONE', #414, #119, #157 ) ;
#366 = EDGE_LOOP ( 'NONE', ( #135, #124, #87, #367 ) ) ;
#367 = ORIENTED_EDGE ( 'NONE', *, *, #308, .F. ) ;
#368 = DIRECTION ( 'NONE',  ( 0.0000000000000000000, 0.0000000000000000000, 1.000000000000000000 ) ) ;
#369 = DIRECTION ( 'NONE',  ( -1.000000000000000000, -0.0000000000000000000, -0.0000000000000000000 ) ) ;
#370 = DIRECTION ( 'NONE',  ( 0.0000000000000000000, 0.0000000000000000000, 1.000000000000000000 ) ) ;
#371 = EDGE_LOOP ( 'NONE', ( #396, #136 ) ) ;
#372 = CARTESIAN_POINT ( 'NONE',  ( 0.0000000000000000000, 0.0000000000000000000, 0.0000000000000000000 ) ) ;
#373 = AXIS2_PLACEMENT_3D ( 'NONE', #161, #385, #83 ) ;
#374 = EDGE_LOOP ( 'NONE', ( #6, #68, #13, #254 ) ) ;
#375 = DATE_TIME_ROLE ( 'creation_date' ) ;
#376 = CARTESIAN_POINT ( 'NONE',  ( 84.09999999999998000, 0.0000000000000000000, 0.0000000000000000000 ) ) ;
#377 = AXIS2_PLACEMENT_3D ( 'NONE', #131, #353, #201 ) ;
#378 = DIRECTION ( 'NONE',  ( 0.0000000000000000000, 0.0000000000000000000, 1.000000000000000000 ) ) ;
#379 = CARTESIAN_POINT ( 'NONE',  ( 80.89999999999997700, 0.0000000000000000000, 12.69999999999999900 ) ) ;
#380 = VERTEX_POINT ( 'NONE', #251 ) ;
#381 = CARTESIAN_POINT ( 'NONE',  ( -1.166666666666667400, 0.0000000000000000000, 0.0000000000000000000 ) ) ;
#382 = ORIENTED_EDGE ( 'NONE', *, *, #282, .T. ) ;
#383 = CYLINDRICAL_SURFACE ( 'NONE', #339, 8.000000000000000000 ) ;
#384 = AXIS2_PLACEMENT_3D ( 'NONE', #229, #165, #29 ) ;
#385 = DIRECTION ( 'NONE',  ( -1.000000000000000000, 0.0000000000000000000, -0.0000000000000000000 ) ) ;
#386 = CARTESIAN_POINT ( 'NONE',  ( 73.59999999999999400, 0.0000000000000000000, 0.0000000000000000000 ) ) ;
#387 = COORDINATED_UNIVERSAL_TIME_OFFSET ( 8, 0, .AHEAD. ) ;
#388 = DIRECTION ( 'NONE',  ( -1.000000000000000000, -0.0000000000000000000, -0.0000000000000000000 ) ) ;
#389 = CARTESIAN_POINT ( 'NONE',  ( 0.0000000000000000000, 0.0000000000000000000, 8.000000000000000000 ) ) ;
#390 = ADVANCED_FACE ( 'NONE', ( #123, #394 ), #183, .F. ) ;
#391 = APPROVAL ( #19, 'Î´Ö¸¶¨' ) ;
#392 = PERSON ( 'Î´Ö¸¶¨', 'Î´Ö¸¶¨', 'Î´Ö¸¶¨', ('Î´Ö¸¶¨'), ('Î´Ö¸¶¨'), ('Î´Ö¸¶¨') ) ;
#393 = APPROVAL ( #17, 'Î´Ö¸¶¨' ) ;
#394 = FACE_OUTER_BOUND ( 'NONE', #171, .T. ) ;
#395 = FACE_BOUND ( 'NONE', #43, .T. ) ;
#396 = ORIENTED_EDGE ( 'NONE', *, *, #196, .T. ) ;
#397 = ADVANCED_FACE ( 'NONE', ( #359 ), #129, .T. ) ;
#398 = ORIENTED_EDGE ( 'NONE', *, *, #318, .T. ) ;
#399 = DATE_AND_TIME ( #51, #151 ) ;
#400 = CC_DESIGN_SECURITY_CLASSIFICATION ( #288, ( #185 ) ) ;
#401 = VERTEX_POINT ( 'NONE', #241 ) ;
#402 = ORIENTED_EDGE ( 'NONE', *, *, #96, .T. ) ;
#403 = DIRECTION ( 'NONE',  ( -1.000000000000000000, -0.0000000000000000000, -0.0000000000000000000 ) ) ;
#404 = AXIS2_PLACEMENT_3D ( 'NONE', #91, #260, #291 ) ;
#405 = DIRECTION ( 'NONE',  ( -1.000000000000000000, -0.0000000000000000000, -0.0000000000000000000 ) ) ;
#406 = PERSON_AND_ORGANIZATION ( #392, #218 ) ;
#407 = APPLICATION_CONTEXT ( 'configuration controlled 3d designs of mechanical parts and assemblies' ) ;
#408 = EDGE_CURVE ( 'NONE', #380, #120, #106, .T. ) ;
#409 = DIRECTION ( 'NONE',  ( -1.000000000000000000, -0.0000000000000000000, -0.0000000000000000000 ) ) ;
#410 = DIRECTION ( 'NONE',  ( -1.000000000000000000, -0.0000000000000000000, -0.0000000000000000000 ) ) ;
#411 = DIRECTION ( 'NONE',  ( 0.0000000000000000000, 0.0000000000000000000, 1.000000000000000000 ) ) ;
#412 = CIRCLE ( 'NONE', #11, 13.00000000000000000 ) ;
#413 = DIRECTION ( 'NONE',  ( 0.0000000000000000000, 0.0000000000000000000, -1.000000000000000000 ) ) ;
#414 = CARTESIAN_POINT ( 'NONE',  ( 80.10000000000000900, 0.0000000000000000000, 0.0000000000000000000 ) ) ;
#415 = DIRECTION ( 'NONE',  ( -1.000000000000000000, -0.0000000000000000000, -0.0000000000000000000 ) ) ;
ENDSEC;
END-ISO-10303-21;
