ISO-10303-21;
HEADER;
FILE_DESCRIPTION (( 'STEP AP203' ),
    '1' );
FILE_NAME ('WWL15-150AT STEPÍ¼.STEP',
    '2019-10-28T06:54:38',
    ( '' ),
    ( '' ),
    'SwSTEP 2.0',
    'SolidWorks 2014',
    '' );
FILE_SCHEMA (( 'CONFIG_CONTROL_DESIGN' ));
ENDSEC;

DATA;
#1 = ORIENTED_EDGE ( 'NONE', *, *, #169, .T. ) ;
#2 = VERTEX_POINT ( 'NONE', #146 ) ;
#3 = CARTESIAN_POINT ( 'NONE',  ( -3.007999999999998700, 0.0000000000000000000, 0.0000000000000000000 ) ) ;
#4 = CIRCLE ( 'NONE', #137, 12.19999999999999900 ) ;
#5 = EDGE_CURVE ( 'NONE', #70, #338, #180, .T. ) ;
#6 = CIRCLE ( 'NONE', #309, 13.00000000000000000 ) ;
#7 = ORIENTED_EDGE ( 'NONE', *, *, #359, .T. ) ;
#8 = ORIENTED_EDGE ( 'NONE', *, *, #264, .T. ) ;
#9 = ADVANCED_FACE ( 'NONE', ( #177 ), #103, .T. ) ;
#10 = CARTESIAN_POINT ( 'NONE',  ( 91.00000000000000000, 0.0000000000000000000, 0.0000000000000000000 ) ) ;
#11 = FACE_OUTER_BOUND ( 'NONE', #377, .T. ) ;
#12 = EDGE_CURVE ( 'NONE', #360, #298, #4, .T. ) ;
#13 = AXIS2_PLACEMENT_3D ( 'NONE', #63, #100, #29 ) ;
#14 = DIRECTION ( 'NONE',  ( 1.000000000000000000, 0.0000000000000000000, 0.0000000000000000000 ) ) ;
#15 = DIRECTION ( 'NONE',  ( 0.0000000000000000000, 0.0000000000000000000, 1.000000000000000000 ) ) ;
#16 = LINE ( 'NONE', #250, #31 ) ;
#17 = AXIS2_PLACEMENT_3D ( 'NONE', #151, #217, #15 ) ;
#18 = CARTESIAN_POINT ( 'NONE',  ( 0.0000000000000000000, 0.0000000000000000000, 0.0000000000000000000 ) ) ;
#19 = DIRECTION ( 'NONE',  ( -1.000000000000000000, 0.0000000000000000000, -0.0000000000000000000 ) ) ;
#20 = ORIENTED_EDGE ( 'NONE', *, *, #55, .F. ) ;
#21 = EDGE_LOOP ( 'NONE', ( #204, #20 ) ) ;
#22 = EDGE_CURVE ( 'NONE', #338, #70, #94, .T. ) ;
#23 = CARTESIAN_POINT ( 'NONE',  ( 0.0000000000000000000, 0.0000000000000000000, 8.000000000000000000 ) ) ;
#24 = CARTESIAN_POINT ( 'NONE',  ( 94.20000000000000300, 0.0000000000000000000, 12.69999999999999900 ) ) ;
#25 = LOCAL_TIME ( 14, 54, 38.00000000000000000, #230 ) ;
#26 = CARTESIAN_POINT ( 'NONE',  ( 83.70000000000000300, 0.0000000000000000000, 0.0000000000000000000 ) ) ;
#27 = PERSON_AND_ORGANIZATION_ROLE ( 'creator' ) ;
#28 = SECURITY_CLASSIFICATION ( '', '', #275 ) ;
#29 = DIRECTION ( 'NONE',  ( 0.0000000000000000000, 0.0000000000000000000, 1.000000000000000000 ) ) ;
#30 = MANIFOLD_SOLID_BREP ( 'Ðý×ª1', #254 ) ;
#31 = VECTOR ( 'NONE', #48, 1000.000000000000000 ) ;
#32 = ORIENTED_EDGE ( 'NONE', *, *, #241, .T. ) ;
#33 = EDGE_CURVE ( 'NONE', #121, #390, #330, .T. ) ;
#34 = VERTEX_POINT ( 'NONE', #281 ) ;
#35 = EDGE_LOOP ( 'NONE', ( #42, #1, #190, #179 ) ) ;
#36 = CALENDAR_DATE ( 2019, 28, 10 ) ;
#37 = ADVANCED_FACE ( 'NONE', ( #268 ), #182, .F. ) ;
#38 = CYLINDRICAL_SURFACE ( 'NONE', #13, 8.000000000000000000 ) ;
#39 = LINE ( 'NONE', #60, #367 ) ;
#40 = AXIS2_PLACEMENT_3D ( 'NONE', #3, #61, #322 ) ;
#41 = UNCERTAINTY_MEASURE_WITH_UNIT (LENGTH_MEASURE( 1.000000000000000100E-005 ), #355, 'distance_accuracy_value', 'NONE');
#42 = ORIENTED_EDGE ( 'NONE', *, *, #188, .T. ) ;
#43 = ORIENTED_EDGE ( 'NONE', *, *, #209, .T. ) ;
#44 = ORIENTED_EDGE ( 'NONE', *, *, #89, .T. ) ;
#45 = EDGE_CURVE ( 'NONE', #109, #361, #290, .T. ) ;
#46 = APPROVAL_PERSON_ORGANIZATION ( #93, #324, #163 ) ;
#47 = VECTOR ( 'NONE', #372, 1000.000000000000000 ) ;
#48 = DIRECTION ( 'NONE',  ( -1.000000000000000000, -0.0000000000000000000, -0.0000000000000000000 ) ) ;
#49 = DIRECTION ( 'NONE',  ( -1.000000000000000000, -0.0000000000000000000, -0.0000000000000000000 ) ) ;
#50 = CARTESIAN_POINT ( 'NONE',  ( 83.70000000000000300, 9.797174393178825700E-016, -8.000000000000000000 ) ) ;
#51 = EDGE_CURVE ( 'NONE', #390, #121, #6, .T. ) ;
#52 = ORIENTED_EDGE ( 'NONE', *, *, #55, .T. ) ;
#53 = CARTESIAN_POINT ( 'NONE',  ( -3.007999999999998700, 0.0000000000000000000, 0.0000000000000000000 ) ) ;
#54 = DIRECTION ( 'NONE',  ( 0.0000000000000000000, 0.0000000000000000000, 1.000000000000000000 ) ) ;
#55 = EDGE_CURVE ( 'NONE', #184, #2, #77, .T. ) ;
#56 = CARTESIAN_POINT ( 'NONE',  ( 94.20000000000000300, 1.555301434917138400E-015, -12.69999999999999900 ) ) ;
#57 = DIRECTION ( 'NONE',  ( -1.000000000000000000, -0.0000000000000000000, -0.0000000000000000000 ) ) ;
#58 = EDGE_LOOP ( 'NONE', ( #235, #237 ) ) ;
#59 = CC_DESIGN_PERSON_AND_ORGANIZATION_ASSIGNMENT ( #193, #128, ( #138 ) ) ;
#60 = CARTESIAN_POINT ( 'NONE',  ( -3.007999999999998700, 1.555301434917138400E-015, -12.69999999999999900 ) ) ;
#61 = DIRECTION ( 'NONE',  ( -1.000000000000000000, -0.0000000000000000000, -0.0000000000000000000 ) ) ;
#62 = ORIENTED_EDGE ( 'NONE', *, *, #241, .F. ) ;
#63 = CARTESIAN_POINT ( 'NONE',  ( -3.007999999999998700, 0.0000000000000000000, 0.0000000000000000000 ) ) ;
#64 = CC_DESIGN_DATE_AND_TIME_ASSIGNMENT ( #213, #384, ( #364 ) ) ;
#65 = CIRCLE ( 'NONE', #238, 8.000000000000000000 ) ;
#66 = ADVANCED_FACE ( 'NONE', ( #363, #159 ), #376, .F. ) ;
#67 = CIRCLE ( 'NONE', #212, 12.19999999999999900 ) ;
#68 = DATE_TIME_ROLE ( 'classification_date' ) ;
#69 = EDGE_CURVE ( 'NONE', #113, #337, #259, .T. ) ;
#70 = VERTEX_POINT ( 'NONE', #227 ) ;
#71 = ADVANCED_BREP_SHAPE_REPRESENTATION ( 'WWL15-150AT STEPÍ¼', ( #30, #194 ), #393 ) ;
#72 = LINE ( 'NONE', #407, #410 ) ;
#73 = AXIS2_PLACEMENT_3D ( 'NONE', #157, #346, #378 ) ;
#74 = ORIENTED_EDGE ( 'NONE', *, *, #379, .T. ) ;
#75 = CARTESIAN_POINT ( 'NONE',  ( 94.20000000000000300, 12.69999999999999900, 0.0000000000000000000 ) ) ;
#76 = EDGE_CURVE ( 'NONE', #121, #113, #72, .T. ) ;
#77 = CIRCLE ( 'NONE', #345, 8.000000000000000000 ) ;
#78 = EDGE_LOOP ( 'NONE', ( #105, #74 ) ) ;
#79 = ORIENTED_EDGE ( 'NONE', *, *, #33, .T. ) ;
#80 = CARTESIAN_POINT ( 'NONE',  ( 90.20000000000000300, 0.0000000000000000000, 0.0000000000000000000 ) ) ;
#81 = COORDINATED_UNIVERSAL_TIME_OFFSET ( 8, 0, .AHEAD. ) ;
#82 = LINE ( 'NONE', #373, #245 ) ;
#83 = PERSON ( 'Î´Ö¸¶¨', 'Î´Ö¸¶¨', 'Î´Ö¸¶¨', ('Î´Ö¸¶¨'), ('Î´Ö¸¶¨'), ('Î´Ö¸¶¨') ) ;
#84 = DIRECTION ( 'NONE',  ( 0.0000000000000000000, 0.0000000000000000000, -1.000000000000000000 ) ) ;
#85 = CARTESIAN_POINT ( 'NONE',  ( 94.20000000000000300, 0.0000000000000000000, 0.0000000000000000000 ) ) ;
#86 = DIRECTION ( 'NONE',  ( -1.000000000000000000, -0.0000000000000000000, -0.0000000000000000000 ) ) ;
#87 = FACE_OUTER_BOUND ( 'NONE', #354, .T. ) ;
#88 = DIRECTION ( 'NONE',  ( -0.0000000000000000000, 0.0000000000000000000, 1.000000000000000000 ) ) ;
#89 = EDGE_CURVE ( 'NONE', #172, #34, #67, .T. ) ;
#90 = ORIENTED_EDGE ( 'NONE', *, *, #22, .F. ) ;
#91 = DIRECTION ( 'NONE',  ( -1.000000000000000000, 0.0000000000000000000, -0.0000000000000000000 ) ) ;
#92 = DIRECTION ( 'NONE',  ( 0.0000000000000000000, 0.0000000000000000000, 1.000000000000000000 ) ) ;
#93 = PERSON_AND_ORGANIZATION ( #83, #158 ) ;
#94 = CIRCLE ( 'NONE', #306, 12.69999999999999900 ) ;
#95 = DIRECTION ( 'NONE',  ( -1.000000000000000000, -0.0000000000000000000, -0.0000000000000000000 ) ) ;
#96 = CARTESIAN_POINT ( 'NONE',  ( 0.0000000000000000000, 9.797174393178825700E-016, -8.000000000000000000 ) ) ;
#97 = APPROVAL_ROLE ( '' ) ;
#98 = ORIENTED_EDGE ( 'NONE', *, *, #51, .F. ) ;
#99 = AXIS2_PLACEMENT_3D ( 'NONE', #195, #196, #386 ) ;
#100 = DIRECTION ( 'NONE',  ( -1.000000000000000000, -0.0000000000000000000, -0.0000000000000000000 ) ) ;
#101 = LINE ( 'NONE', #389, #304 ) ;
#102 = EDGE_CURVE ( 'NONE', #140, #70, #82, .T. ) ;
#103 = CYLINDRICAL_SURFACE ( 'NONE', #181, 12.69999999999999900 ) ;
#104 = ORIENTED_EDGE ( 'NONE', *, *, #240, .T. ) ;
#105 = ORIENTED_EDGE ( 'NONE', *, *, #69, .T. ) ;
#106 = FACE_BOUND ( 'NONE', #21, .T. ) ;
#107 = APPROVAL ( #293, 'Î´Ö¸¶¨' ) ;
#108 = ADVANCED_FACE ( 'NONE', ( #236 ), #231, .T. ) ;
#109 = VERTEX_POINT ( 'NONE', #23 ) ;
#110 = CALENDAR_DATE ( 2019, 28, 10 ) ;
#111 = DIRECTION ( 'NONE',  ( -1.000000000000000000, -0.0000000000000000000, -0.0000000000000000000 ) ) ;
#112 = AXIS2_PLACEMENT_3D ( 'NONE', #246, #314, #54 ) ;
#113 = VERTEX_POINT ( 'NONE', #191 ) ;
#114 = DIRECTION ( 'NONE',  ( 0.0000000000000000000, 0.0000000000000000000, 1.000000000000000000 ) ) ;
#115 = CC_DESIGN_APPROVAL ( #324, ( #364 ) ) ;
#116 = CARTESIAN_POINT ( 'NONE',  ( -3.007999999999998700, 0.0000000000000000000, 0.0000000000000000000 ) ) ;
#117 = APPROVAL_PERSON_ORGANIZATION ( #362, #248, #358 ) ;
#118 = CIRCLE ( 'NONE', #222, 13.00000000000000000 ) ;
#119 = DIRECTION ( 'NONE',  ( -1.000000000000000000, -0.0000000000000000000, -0.0000000000000000000 ) ) ;
#120 = CARTESIAN_POINT ( 'NONE',  ( 90.20000000000000300, 0.0000000000000000000, 13.00000000000000000 ) ) ;
#121 = VERTEX_POINT ( 'NONE', #120 ) ;
#122 = ORIENTED_EDGE ( 'NONE', *, *, #76, .F. ) ;
#123 = CARTESIAN_POINT ( 'NONE',  ( 83.70000000000000300, 0.0000000000000000000, 0.0000000000000000000 ) ) ;
#124 = DIRECTION ( 'NONE',  ( 0.0000000000000000000, 0.0000000000000000000, 1.000000000000000000 ) ) ;
#125 = AXIS2_PLACEMENT_3D ( 'NONE', #147, #279, #308 ) ;
#126 = DIRECTION ( 'NONE',  ( 0.0000000000000000000, 0.0000000000000000000, 1.000000000000000000 ) ) ;
#127 = PERSON_AND_ORGANIZATION ( #83, #158 ) ;
#128 = PERSON_AND_ORGANIZATION_ROLE ( 'design_owner' ) ;
#129 = APPLICATION_CONTEXT ( 'configuration controlled 3d designs of mechanical parts and assemblies' ) ;
#130 = CC_DESIGN_DATE_AND_TIME_ASSIGNMENT ( #207, #68, ( #28 ) ) ;
#131 = CARTESIAN_POINT ( 'NONE',  ( 0.0000000000000000000, 0.0000000000000000000, 0.0000000000000000000 ) ) ;
#132 = LOCAL_TIME ( 14, 54, 38.00000000000000000, #289 ) ;
#133 = CIRCLE ( 'NONE', #282, 12.19999999999999900 ) ;
#134 = VERTEX_POINT ( 'NONE', #56 ) ;
#135 = ORIENTED_EDGE ( 'NONE', *, *, #379, .F. ) ;
#136 = PERSON_AND_ORGANIZATION ( #83, #158 ) ;
#137 = AXIS2_PLACEMENT_3D ( 'NONE', #80, #311, #114 ) ;
#138 = PRODUCT ( 'WWL15-150AT STEPÍ¼', 'WWL15-150AT STEPÍ¼', '', ( #165 ) ) ;
#139 = ORIENTED_EDGE ( 'NONE', *, *, #244, .F. ) ;
#140 = VERTEX_POINT ( 'NONE', #24 ) ;
#141 = CALENDAR_DATE ( 2019, 28, 10 ) ;
#142 = CIRCLE ( 'NONE', #155, 12.69999999999999900 ) ;
#143 = FACE_OUTER_BOUND ( 'NONE', #247, .T. ) ;
#144 = CC_DESIGN_PERSON_AND_ORGANIZATION_ASSIGNMENT ( #136, #269, ( #387 ) ) ;
#145 = ORIENTED_EDGE ( 'NONE', *, *, #102, .T. ) ;
#146 = CARTESIAN_POINT ( 'NONE',  ( 83.70000000000000300, 0.0000000000000000000, 8.000000000000000000 ) ) ;
#147 = CARTESIAN_POINT ( 'NONE',  ( 91.00000000000000000, 0.0000000000000000000, 0.0000000000000000000 ) ) ;
#148 = CC_DESIGN_PERSON_AND_ORGANIZATION_ASSIGNMENT ( #203, #328, ( #387 ) ) ;
#149 = APPROVAL_PERSON_ORGANIZATION ( #313, #107, #97 ) ;
#150 = DIRECTION ( 'NONE',  ( 0.0000000000000000000, 0.0000000000000000000, 1.000000000000000000 ) ) ;
#151 = CARTESIAN_POINT ( 'NONE',  ( -3.007999999999998700, 0.0000000000000000000, 0.0000000000000000000 ) ) ;
#152 = ORIENTED_EDGE ( 'NONE', *, *, #33, .F. ) ;
#153 = EDGE_LOOP ( 'NONE', ( #8, #300 ) ) ;
#154 = DIRECTION ( 'NONE',  ( 0.0000000000000000000, 0.0000000000000000000, 1.000000000000000000 ) ) ;
#155 = AXIS2_PLACEMENT_3D ( 'NONE', #85, #320, #124 ) ;
#156 = CARTESIAN_POINT ( 'NONE',  ( 0.0000000000000000000, 0.0000000000000000000, 0.0000000000000000000 ) ) ;
#157 = CARTESIAN_POINT ( 'NONE',  ( 94.20000000000000300, 0.0000000000000000000, 0.0000000000000000000 ) ) ;
#158 = ORGANIZATION ( 'Î´Ö¸¶¨', 'Î´Ö¸¶¨', '' ) ;
#159 = FACE_BOUND ( 'NONE', #153, .T. ) ;
#160 = DIRECTION ( 'NONE',  ( -0.0000000000000000000, 0.0000000000000000000, 1.000000000000000000 ) ) ;
#161 = EDGE_CURVE ( 'NONE', #34, #298, #403, .T. ) ;
#162 = DIRECTION ( 'NONE',  ( -1.000000000000000000, -0.0000000000000000000, -0.0000000000000000000 ) ) ;
#163 = APPROVAL_ROLE ( '' ) ;
#164 = DATE_AND_TIME ( #310, #323 ) ;
#165 = MECHANICAL_CONTEXT ( 'NONE', #265, 'mechanical' ) ;
#166 = AXIS2_PLACEMENT_3D ( 'NONE', #406, #14, #349 ) ;
#167 = EDGE_LOOP ( 'NONE', ( #79, #375, #220, #122 ) ) ;
#168 =( NAMED_UNIT ( * ) SI_UNIT ( $, .STERADIAN. ) SOLID_ANGLE_UNIT ( ) );
#169 = EDGE_CURVE ( 'NONE', #134, #338, #39, .T. ) ;
#170 = CC_DESIGN_SECURITY_CLASSIFICATION ( #28, ( #387 ) ) ;
#171 = ADVANCED_FACE ( 'NONE', ( #143 ), #258, .T. ) ;
#172 = VERTEX_POINT ( 'NONE', #409 ) ;
#173 = DIRECTION ( 'NONE',  ( 0.0000000000000000000, 0.0000000000000000000, 1.000000000000000000 ) ) ;
#174 = AXIS2_PLACEMENT_3D ( 'NONE', #400, #242, #150 ) ;
#175 = FACE_OUTER_BOUND ( 'NONE', #78, .T. ) ;
#176 = CC_DESIGN_APPROVAL ( #107, ( #387 ) ) ;
#177 = FACE_OUTER_BOUND ( 'NONE', #383, .T. ) ;
#178 = DIRECTION ( 'NONE',  ( -1.000000000000000000, -0.0000000000000000000, -0.0000000000000000000 ) ) ;
#179 = ORIENTED_EDGE ( 'NONE', *, *, #102, .F. ) ;
#180 = CIRCLE ( 'NONE', #125, 12.69999999999999900 ) ;
#181 = AXIS2_PLACEMENT_3D ( 'NONE', #210, #178, #173 ) ;
#182 = PLANE ( 'NONE',  #271 ) ;
#183 = FACE_OUTER_BOUND ( 'NONE', #35, .T. ) ;
#184 = VERTEX_POINT ( 'NONE', #50 ) ;
#185 = CARTESIAN_POINT ( 'NONE',  ( 90.20000000000000300, 0.0000000000000000000, 0.0000000000000000000 ) ) ;
#186 = DIRECTION ( 'NONE',  ( -1.000000000000000000, -0.0000000000000000000, -0.0000000000000000000 ) ) ;
#187 = APPROVAL_DATE_TIME ( #352, #107 ) ;
#188 = EDGE_CURVE ( 'NONE', #140, #134, #142, .T. ) ;
#189 = DIRECTION ( 'NONE',  ( 0.0000000000000000000, 0.0000000000000000000, 1.000000000000000000 ) ) ;
#190 = ORIENTED_EDGE ( 'NONE', *, *, #5, .F. ) ;
#191 = CARTESIAN_POINT ( 'NONE',  ( 83.70000000000000300, 0.0000000000000000000, 13.00000000000000000 ) ) ;
#192 = CARTESIAN_POINT ( 'NONE',  ( -3.007999999999998700, 1.494069094959770900E-015, -12.19999999999999900 ) ) ;
#193 = PERSON_AND_ORGANIZATION ( #83, #158 ) ;
#194 = AXIS2_PLACEMENT_3D ( 'NONE', #131, #228, #257 ) ;
#195 = CARTESIAN_POINT ( 'NONE',  ( 0.0000000000000000000, 0.0000000000000000000, 0.0000000000000000000 ) ) ;
#196 = DIRECTION ( 'NONE',  ( 1.000000000000000000, 0.0000000000000000000, 0.0000000000000000000 ) ) ;
#197 = PRODUCT_DEFINITION_SHAPE ( 'NONE', 'NONE',  #364 ) ;
#198 = APPROVAL_DATE_TIME ( #272, #248 ) ;
#199 = CIRCLE ( 'NONE', #233, 8.000000000000000000 ) ;
#200 = PERSON_AND_ORGANIZATION_ROLE ( 'classification_officer' ) ;
#201 = CC_DESIGN_PERSON_AND_ORGANIZATION_ASSIGNMENT ( #127, #200, ( #28 ) ) ;
#202 = ORIENTED_EDGE ( 'NONE', *, *, #169, .F. ) ;
#203 = PERSON_AND_ORGANIZATION ( #83, #158 ) ;
#204 = ORIENTED_EDGE ( 'NONE', *, *, #336, .F. ) ;
#205 = EDGE_LOOP ( 'NONE', ( #385, #44, #339, #343 ) ) ;
#206 = EDGE_LOOP ( 'NONE', ( #139, #316 ) ) ;
#207 = DATE_AND_TIME ( #110, #25 ) ;
#208 = CYLINDRICAL_SURFACE ( 'NONE', #414, 12.19999999999999900 ) ;
#209 = EDGE_CURVE ( 'NONE', #184, #361, #347, .T. ) ;
#210 = CARTESIAN_POINT ( 'NONE',  ( -3.007999999999998700, 0.0000000000000000000, 0.0000000000000000000 ) ) ;
#211 = ORIENTED_EDGE ( 'NONE', *, *, #240, .F. ) ;
#212 = AXIS2_PLACEMENT_3D ( 'NONE', #382, #119, #126 ) ;
#213 = DATE_AND_TIME ( #141, #239 ) ;
#214 = VECTOR ( 'NONE', #413, 1000.000000000000000 ) ;
#215 = VECTOR ( 'NONE', #415, 1000.000000000000000 ) ;
#216 = CARTESIAN_POINT ( 'NONE',  ( 90.20000000000000300, 13.00000000000000000, 0.0000000000000000000 ) ) ;
#217 = DIRECTION ( 'NONE',  ( -1.000000000000000000, -0.0000000000000000000, -0.0000000000000000000 ) ) ;
#218 = DIRECTION ( 'NONE',  ( -1.000000000000000000, -0.0000000000000000000, -0.0000000000000000000 ) ) ;
#219 = ORIENTED_EDGE ( 'NONE', *, *, #76, .T. ) ;
#220 = ORIENTED_EDGE ( 'NONE', *, *, #69, .F. ) ;
#221 = ORIENTED_EDGE ( 'NONE', *, *, #188, .F. ) ;
#222 = AXIS2_PLACEMENT_3D ( 'NONE', #263, #57, #92 ) ;
#223 = DIRECTION ( 'NONE',  ( 0.0000000000000000000, 0.0000000000000000000, 1.000000000000000000 ) ) ;
#224 = COORDINATED_UNIVERSAL_TIME_OFFSET ( 8, 0, .AHEAD. ) ;
#225 = CARTESIAN_POINT ( 'NONE',  ( 90.20000000000000300, 0.0000000000000000000, 12.19999999999999900 ) ) ;
#226 = EDGE_CURVE ( 'NONE', #390, #337, #16, .T. ) ;
#227 = CARTESIAN_POINT ( 'NONE',  ( 91.00000000000000000, 0.0000000000000000000, 12.69999999999999900 ) ) ;
#228 = DIRECTION ( 'NONE',  ( 0.0000000000000000000, 0.0000000000000000000, 1.000000000000000000 ) ) ;
#229 = PLANE ( 'NONE',  #99 ) ;
#230 = COORDINATED_UNIVERSAL_TIME_OFFSET ( 8, 0, .AHEAD. ) ;
#231 = CYLINDRICAL_SURFACE ( 'NONE', #341, 12.19999999999999900 ) ;
#232 = DIRECTION ( 'NONE',  ( 0.0000000000000000000, 0.0000000000000000000, 1.000000000000000000 ) ) ;
#233 = AXIS2_PLACEMENT_3D ( 'NONE', #26, #351, #232 ) ;
#234 = CARTESIAN_POINT ( 'NONE',  ( 91.00000000000000000, 1.555301434917138400E-015, -12.69999999999999900 ) ) ;
#235 = ORIENTED_EDGE ( 'NONE', *, *, #5, .T. ) ;
#236 = FACE_OUTER_BOUND ( 'NONE', #205, .T. ) ;
#237 = ORIENTED_EDGE ( 'NONE', *, *, #22, .T. ) ;
#238 = AXIS2_PLACEMENT_3D ( 'NONE', #18, #252, #253 ) ;
#239 = LOCAL_TIME ( 14, 54, 38.00000000000000000, #224 ) ;
#240 = EDGE_CURVE ( 'NONE', #361, #109, #65, .T. ) ;
#241 = EDGE_CURVE ( 'NONE', #134, #140, #366, .T. ) ;
#242 = DIRECTION ( 'NONE',  ( -1.000000000000000000, -0.0000000000000000000, -0.0000000000000000000 ) ) ;
#243 = PRODUCT_RELATED_PRODUCT_CATEGORY ( 'detail', '', ( #138 ) ) ;
#244 = EDGE_CURVE ( 'NONE', #34, #172, #335, .T. ) ;
#245 = VECTOR ( 'NONE', #218, 1000.000000000000000 ) ;
#246 = CARTESIAN_POINT ( 'NONE',  ( 91.00000000000000000, 0.0000000000000000000, 0.0000000000000000000 ) ) ;
#247 = EDGE_LOOP ( 'NONE', ( #302, #397, #219, #135 ) ) ;
#248 = APPROVAL ( #391, 'Î´Ö¸¶¨' ) ;
#249 = CARTESIAN_POINT ( 'NONE',  ( 83.70000000000000300, 0.0000000000000000000, 0.0000000000000000000 ) ) ;
#250 = CARTESIAN_POINT ( 'NONE',  ( -3.007999999999998700, 1.592040838891559100E-015, -13.00000000000000000 ) ) ;
#251 = CARTESIAN_POINT ( 'NONE',  ( -3.007999999999998700, 0.0000000000000000000, 0.0000000000000000000 ) ) ;
#252 = DIRECTION ( 'NONE',  ( -1.000000000000000000, -0.0000000000000000000, -0.0000000000000000000 ) ) ;
#253 = DIRECTION ( 'NONE',  ( 0.0000000000000000000, 0.0000000000000000000, 1.000000000000000000 ) ) ;
#254 = CLOSED_SHELL ( 'NONE', ( #392, #273, #276, #331, #396, #305, #303, #171, #66, #108, #301, #9, #37 ) ) ;
#255 = PLANE ( 'NONE',  #287 ) ;
#256 = CARTESIAN_POINT ( 'NONE',  ( 90.20000000000000300, 0.0000000000000000000, 0.0000000000000000000 ) ) ;
#257 = DIRECTION ( 'NONE',  ( 1.000000000000000000, 0.0000000000000000000, 0.0000000000000000000 ) ) ;
#258 = CYLINDRICAL_SURFACE ( 'NONE', #260, 13.00000000000000000 ) ;
#259 = CIRCLE ( 'NONE', #267, 13.00000000000000000 ) ;
#260 = AXIS2_PLACEMENT_3D ( 'NONE', #348, #95, #283 ) ;
#261 = APPROVAL_STATUS ( 'not_yet_approved' ) ;
#262 = EDGE_LOOP ( 'NONE', ( #307, #52, #277, #211 ) ) ;
#263 = CARTESIAN_POINT ( 'NONE',  ( 83.70000000000000300, 0.0000000000000000000, 0.0000000000000000000 ) ) ;
#264 = EDGE_CURVE ( 'NONE', #298, #360, #133, .T. ) ;
#265 = APPLICATION_CONTEXT ( 'configuration controlled 3d designs of mechanical parts and assemblies' ) ;
#266 = FACE_OUTER_BOUND ( 'NONE', #58, .T. ) ;
#267 = AXIS2_PLACEMENT_3D ( 'NONE', #249, #49, #405 ) ;
#268 = FACE_OUTER_BOUND ( 'NONE', #333, .T. ) ;
#269 = PERSON_AND_ORGANIZATION_ROLE ( 'creator' ) ;
#270 = ORIENTED_EDGE ( 'NONE', *, *, #45, .F. ) ;
#271 = AXIS2_PLACEMENT_3D ( 'NONE', #75, #19, #88 ) ;
#272 = DATE_AND_TIME ( #284, #365 ) ;
#273 = ADVANCED_FACE ( 'NONE', ( #401 ), #208, .T. ) ;
#274 = FACE_BOUND ( 'NONE', #206, .T. ) ;
#275 = SECURITY_CLASSIFICATION_LEVEL ( 'unclassified' ) ;
#276 = ADVANCED_FACE ( 'NONE', ( #371 ), #325, .T. ) ;
#277 = ORIENTED_EDGE ( 'NONE', *, *, #327, .T. ) ;
#278 = DESIGN_CONTEXT ( 'detailed design', #129, 'design' ) ;
#279 = DIRECTION ( 'NONE',  ( -1.000000000000000000, -0.0000000000000000000, -0.0000000000000000000 ) ) ;
#280 = COORDINATED_UNIVERSAL_TIME_OFFSET ( 8, 0, .AHEAD. ) ;
#281 = CARTESIAN_POINT ( 'NONE',  ( 91.00000000000000000, 0.0000000000000000000, 12.19999999999999900 ) ) ;
#282 = AXIS2_PLACEMENT_3D ( 'NONE', #185, #186, #189 ) ;
#283 = DIRECTION ( 'NONE',  ( 0.0000000000000000000, 0.0000000000000000000, 1.000000000000000000 ) ) ;
#284 = CALENDAR_DATE ( 2019, 28, 10 ) ;
#285 = CARTESIAN_POINT ( 'NONE',  ( -3.007999999999998700, 0.0000000000000000000, 12.19999999999999900 ) ) ;
#286 = AXIS2_PLACEMENT_3D ( 'NONE', #156, #350, #154 ) ;
#287 = AXIS2_PLACEMENT_3D ( 'NONE', #288, #342, #84 ) ;
#288 = CARTESIAN_POINT ( 'NONE',  ( 83.70000000000000300, 8.000000000000000000, 0.0000000000000000000 ) ) ;
#289 = COORDINATED_UNIVERSAL_TIME_OFFSET ( 8, 0, .AHEAD. ) ;
#290 = CIRCLE ( 'NONE', #286, 8.000000000000000000 ) ;
#291 = DIRECTION ( 'NONE',  ( -1.000000000000000000, -0.0000000000000000000, -0.0000000000000000000 ) ) ;
#292 = CARTESIAN_POINT ( 'NONE',  ( 83.70000000000000300, 1.592040838891559100E-015, -13.00000000000000000 ) ) ;
#293 = APPROVAL_STATUS ( 'not_yet_approved' ) ;
#294 =( NAMED_UNIT ( * ) PLANE_ANGLE_UNIT ( ) SI_UNIT ( $, .RADIAN. ) );
#295 = SHAPE_DEFINITION_REPRESENTATION ( #197, #71 ) ;
#296 = CC_DESIGN_PERSON_AND_ORGANIZATION_ASSIGNMENT ( #395, #27, ( #364 ) ) ;
#297 = APPLICATION_PROTOCOL_DEFINITION ( 'international standard', 'config_control_design', 1994, #265 ) ;
#298 = VERTEX_POINT ( 'NONE', #225 ) ;
#299 = ORIENTED_EDGE ( 'NONE', *, *, #161, .F. ) ;
#300 = ORIENTED_EDGE ( 'NONE', *, *, #12, .T. ) ;
#301 = ADVANCED_FACE ( 'NONE', ( #274, #266 ), #404, .F. ) ;
#302 = ORIENTED_EDGE ( 'NONE', *, *, #226, .F. ) ;
#303 = ADVANCED_FACE ( 'NONE', ( #106, #175 ), #255, .F. ) ;
#304 = VECTOR ( 'NONE', #162, 1000.000000000000000 ) ;
#305 = ADVANCED_FACE ( 'NONE', ( #340 ), #319, .T. ) ;
#306 = AXIS2_PLACEMENT_3D ( 'NONE', #10, #111, #334 ) ;
#307 = ORIENTED_EDGE ( 'NONE', *, *, #209, .F. ) ;
#308 = DIRECTION ( 'NONE',  ( 0.0000000000000000000, 0.0000000000000000000, 1.000000000000000000 ) ) ;
#309 = AXIS2_PLACEMENT_3D ( 'NONE', #256, #291, #223 ) ;
#310 = CALENDAR_DATE ( 2019, 28, 10 ) ;
#311 = DIRECTION ( 'NONE',  ( -1.000000000000000000, -0.0000000000000000000, -0.0000000000000000000 ) ) ;
#312 = ORIENTED_EDGE ( 'NONE', *, *, #264, .F. ) ;
#313 = PERSON_AND_ORGANIZATION ( #83, #158 ) ;
#314 = DIRECTION ( 'NONE',  ( -1.000000000000000000, -0.0000000000000000000, -0.0000000000000000000 ) ) ;
#315 = DIRECTION ( 'NONE',  ( -1.000000000000000000, -0.0000000000000000000, -0.0000000000000000000 ) ) ;
#316 = ORIENTED_EDGE ( 'NONE', *, *, #89, .F. ) ;
#317 = DIRECTION ( 'NONE',  ( 0.0000000000000000000, 0.0000000000000000000, 1.000000000000000000 ) ) ;
#318 = DIRECTION ( 'NONE',  ( 0.0000000000000000000, 0.0000000000000000000, 1.000000000000000000 ) ) ;
#319 = CYLINDRICAL_SURFACE ( 'NONE', #17, 8.000000000000000000 ) ;
#320 = DIRECTION ( 'NONE',  ( -1.000000000000000000, -0.0000000000000000000, -0.0000000000000000000 ) ) ;
#321 = ORIENTED_EDGE ( 'NONE', *, *, #336, .T. ) ;
#322 = DIRECTION ( 'NONE',  ( 0.0000000000000000000, 0.0000000000000000000, 1.000000000000000000 ) ) ;
#323 = LOCAL_TIME ( 14, 54, 38.00000000000000000, #81 ) ;
#324 = APPROVAL ( #261, 'Î´Ö¸¶¨' ) ;
#325 = CYLINDRICAL_SURFACE ( 'NONE', #368, 13.00000000000000000 ) ;
#326 = CARTESIAN_POINT ( 'NONE',  ( 90.20000000000000300, 1.494069094959770900E-015, -12.19999999999999900 ) ) ;
#327 = EDGE_CURVE ( 'NONE', #2, #109, #101, .T. ) ;
#328 = PERSON_AND_ORGANIZATION_ROLE ( 'design_supplier' ) ;
#329 = AXIS2_PLACEMENT_3D ( 'NONE', #216, #91, #160 ) ;
#330 = CIRCLE ( 'NONE', #174, 13.00000000000000000 ) ;
#331 = ADVANCED_FACE ( 'NONE', ( #87 ), #38, .T. ) ;
#332 = EDGE_LOOP ( 'NONE', ( #152, #98 ) ) ;
#333 = EDGE_LOOP ( 'NONE', ( #221, #62 ) ) ;
#334 = DIRECTION ( 'NONE',  ( 0.0000000000000000000, 0.0000000000000000000, 1.000000000000000000 ) ) ;
#335 = CIRCLE ( 'NONE', #112, 12.19999999999999900 ) ;
#336 = EDGE_CURVE ( 'NONE', #2, #184, #199, .T. ) ;
#337 = VERTEX_POINT ( 'NONE', #292 ) ;
#338 = VERTEX_POINT ( 'NONE', #234 ) ;
#339 = ORIENTED_EDGE ( 'NONE', *, *, #161, .T. ) ;
#340 = FACE_OUTER_BOUND ( 'NONE', #262, .T. ) ;
#341 = AXIS2_PLACEMENT_3D ( 'NONE', #251, #86, #317 ) ;
#342 = DIRECTION ( 'NONE',  ( 1.000000000000000000, 0.0000000000000000000, 0.0000000000000000000 ) ) ;
#343 = ORIENTED_EDGE ( 'NONE', *, *, #12, .F. ) ;
#344 = DIRECTION ( 'NONE',  ( 0.0000000000000000000, 0.0000000000000000000, 1.000000000000000000 ) ) ;
#345 = AXIS2_PLACEMENT_3D ( 'NONE', #123, #370, #318 ) ;
#346 = DIRECTION ( 'NONE',  ( -1.000000000000000000, -0.0000000000000000000, -0.0000000000000000000 ) ) ;
#347 = LINE ( 'NONE', #408, #47 ) ;
#348 = CARTESIAN_POINT ( 'NONE',  ( -3.007999999999998700, 0.0000000000000000000, 0.0000000000000000000 ) ) ;
#349 = DIRECTION ( 'NONE',  ( 0.0000000000000000000, 0.0000000000000000000, -1.000000000000000000 ) ) ;
#350 = DIRECTION ( 'NONE',  ( -1.000000000000000000, -0.0000000000000000000, -0.0000000000000000000 ) ) ;
#351 = DIRECTION ( 'NONE',  ( -1.000000000000000000, -0.0000000000000000000, -0.0000000000000000000 ) ) ;
#352 = DATE_AND_TIME ( #36, #132 ) ;
#353 = APPLICATION_PROTOCOL_DEFINITION ( 'international standard', 'config_control_design', 1994, #129 ) ;
#354 = EDGE_LOOP ( 'NONE', ( #321, #43, #270, #369 ) ) ;
#355 =( LENGTH_UNIT ( ) NAMED_UNIT ( * ) SI_UNIT ( .MILLI., .METRE. ) );
#356 = CC_DESIGN_APPROVAL ( #248, ( #28 ) ) ;
#357 = CYLINDRICAL_SURFACE ( 'NONE', #40, 12.69999999999999900 ) ;
#358 = APPROVAL_ROLE ( '' ) ;
#359 = EDGE_CURVE ( 'NONE', #172, #360, #402, .T. ) ;
#360 = VERTEX_POINT ( 'NONE', #326 ) ;
#361 = VERTEX_POINT ( 'NONE', #96 ) ;
#362 = PERSON_AND_ORGANIZATION ( #83, #158 ) ;
#363 = FACE_OUTER_BOUND ( 'NONE', #332, .T. ) ;
#364 = PRODUCT_DEFINITION ( 'Î´Öª', '', #387, #278 ) ;
#365 = LOCAL_TIME ( 14, 54, 38.00000000000000000, #280 ) ;
#366 = CIRCLE ( 'NONE', #73, 12.69999999999999900 ) ;
#367 = VECTOR ( 'NONE', #315, 1000.000000000000000 ) ;
#368 = AXIS2_PLACEMENT_3D ( 'NONE', #116, #380, #344 ) ;
#369 = ORIENTED_EDGE ( 'NONE', *, *, #327, .F. ) ;
#370 = DIRECTION ( 'NONE',  ( -1.000000000000000000, -0.0000000000000000000, -0.0000000000000000000 ) ) ;
#371 = FACE_OUTER_BOUND ( 'NONE', #167, .T. ) ;
#372 = DIRECTION ( 'NONE',  ( -1.000000000000000000, -0.0000000000000000000, -0.0000000000000000000 ) ) ;
#373 = CARTESIAN_POINT ( 'NONE',  ( -3.007999999999998700, 0.0000000000000000000, 12.69999999999999900 ) ) ;
#374 = DIRECTION ( 'NONE',  ( 0.0000000000000000000, 0.0000000000000000000, 1.000000000000000000 ) ) ;
#375 = ORIENTED_EDGE ( 'NONE', *, *, #226, .T. ) ;
#376 = PLANE ( 'NONE',  #329 ) ;
#377 = EDGE_LOOP ( 'NONE', ( #394, #104 ) ) ;
#378 = DIRECTION ( 'NONE',  ( 0.0000000000000000000, 0.0000000000000000000, 1.000000000000000000 ) ) ;
#379 = EDGE_CURVE ( 'NONE', #337, #113, #118, .T. ) ;
#380 = DIRECTION ( 'NONE',  ( -1.000000000000000000, -0.0000000000000000000, -0.0000000000000000000 ) ) ;
#381 = APPROVAL_DATE_TIME ( #164, #324 ) ;
#382 = CARTESIAN_POINT ( 'NONE',  ( 91.00000000000000000, 0.0000000000000000000, 0.0000000000000000000 ) ) ;
#383 = EDGE_LOOP ( 'NONE', ( #202, #32, #145, #90 ) ) ;
#384 = DATE_TIME_ROLE ( 'creation_date' ) ;
#385 = ORIENTED_EDGE ( 'NONE', *, *, #359, .F. ) ;
#386 = DIRECTION ( 'NONE',  ( 0.0000000000000000000, 0.0000000000000000000, -1.000000000000000000 ) ) ;
#387 = PRODUCT_DEFINITION_FORMATION_WITH_SPECIFIED_SOURCE ( 'ÈÎºÎ', '', #138, .NOT_KNOWN. ) ;
#388 = CARTESIAN_POINT ( 'NONE',  ( 90.20000000000000300, 1.592040838891559100E-015, -13.00000000000000000 ) ) ;
#389 = CARTESIAN_POINT ( 'NONE',  ( -3.007999999999998700, 0.0000000000000000000, 8.000000000000000000 ) ) ;
#390 = VERTEX_POINT ( 'NONE', #388 ) ;
#391 = APPROVAL_STATUS ( 'not_yet_approved' ) ;
#392 = ADVANCED_FACE ( 'NONE', ( #183 ), #357, .T. ) ;
#393 =( GEOMETRIC_REPRESENTATION_CONTEXT ( 3 ) GLOBAL_UNCERTAINTY_ASSIGNED_CONTEXT ( ( #41 ) ) GLOBAL_UNIT_ASSIGNED_CONTEXT ( ( #355, #294, #168 ) ) REPRESENTATION_CONTEXT ( 'NONE', 'WORKASPACE' ) );
#394 = ORIENTED_EDGE ( 'NONE', *, *, #45, .T. ) ;
#395 = PERSON_AND_ORGANIZATION ( #83, #158 ) ;
#396 = ADVANCED_FACE ( 'NONE', ( #11 ), #229, .F. ) ;
#397 = ORIENTED_EDGE ( 'NONE', *, *, #51, .T. ) ;
#398 = EDGE_LOOP ( 'NONE', ( #399, #7, #312, #299 ) ) ;
#399 = ORIENTED_EDGE ( 'NONE', *, *, #244, .T. ) ;
#400 = CARTESIAN_POINT ( 'NONE',  ( 90.20000000000000300, 0.0000000000000000000, 0.0000000000000000000 ) ) ;
#401 = FACE_OUTER_BOUND ( 'NONE', #398, .T. ) ;
#402 = LINE ( 'NONE', #192, #214 ) ;
#403 = LINE ( 'NONE', #285, #215 ) ;
#404 = PLANE ( 'NONE',  #166 ) ;
#405 = DIRECTION ( 'NONE',  ( 0.0000000000000000000, 0.0000000000000000000, 1.000000000000000000 ) ) ;
#406 = CARTESIAN_POINT ( 'NONE',  ( 91.00000000000000000, 12.19999999999999900, 0.0000000000000000000 ) ) ;
#407 = CARTESIAN_POINT ( 'NONE',  ( -3.007999999999998700, 0.0000000000000000000, 13.00000000000000000 ) ) ;
#408 = CARTESIAN_POINT ( 'NONE',  ( -3.007999999999998700, 9.797174393178825700E-016, -8.000000000000000000 ) ) ;
#409 = CARTESIAN_POINT ( 'NONE',  ( 91.00000000000000000, 1.494069094959770900E-015, -12.19999999999999900 ) ) ;
#410 = VECTOR ( 'NONE', #411, 1000.000000000000000 ) ;
#411 = DIRECTION ( 'NONE',  ( -1.000000000000000000, -0.0000000000000000000, -0.0000000000000000000 ) ) ;
#412 = DIRECTION ( 'NONE',  ( -1.000000000000000000, -0.0000000000000000000, -0.0000000000000000000 ) ) ;
#413 = DIRECTION ( 'NONE',  ( -1.000000000000000000, -0.0000000000000000000, -0.0000000000000000000 ) ) ;
#414 = AXIS2_PLACEMENT_3D ( 'NONE', #53, #412, #374 ) ;
#415 = DIRECTION ( 'NONE',  ( -1.000000000000000000, -0.0000000000000000000, -0.0000000000000000000 ) ) ;
ENDSEC;
END-ISO-10303-21;
