ISO-10303-21;
HEADER;
FILE_DESCRIPTION (( 'STEP AP203' ),
    '1' );
FILE_NAME ('WWL15-250A STEPÍ¼.STEP',
    '2019-10-28T07:00:59',
    ( '' ),
    ( '' ),
    'SwSTEP 2.0',
    'SolidWorks 2014',
    '' );
FILE_SCHEMA (( 'CONFIG_CONTROL_DESIGN' ));
ENDSEC;

DATA;
#1 = DIRECTION ( 'NONE',  ( -1.000000000000000000, -0.0000000000000000000, -0.0000000000000000000 ) ) ;
#2 = ORIENTED_EDGE ( 'NONE', *, *, #258, .F. ) ;
#3 = DIRECTION ( 'NONE',  ( -1.000000000000000000, 0.0000000000000000000, -0.0000000000000000000 ) ) ;
#4 = COORDINATED_UNIVERSAL_TIME_OFFSET ( 8, 0, .AHEAD. ) ;
#5 = CARTESIAN_POINT ( 'NONE',  ( 0.0000000000000000000, 9.797174393178825700E-016, -8.000000000000000000 ) ) ;
#6 = AXIS2_PLACEMENT_3D ( 'NONE', #394, #49, #104 ) ;
#7 = DIRECTION ( 'NONE',  ( 0.0000000000000000000, 0.0000000000000000000, 1.000000000000000000 ) ) ;
#8 = ORIENTED_EDGE ( 'NONE', *, *, #299, .F. ) ;
#9 = DIRECTION ( 'NONE',  ( -1.000000000000000000, -0.0000000000000000000, -0.0000000000000000000 ) ) ;
#10 = ORIENTED_EDGE ( 'NONE', *, *, #342, .F. ) ;
#11 = EDGE_CURVE ( 'NONE', #28, #199, #192, .T. ) ;
#12 = CARTESIAN_POINT ( 'NONE',  ( 141.5000000000000000, 0.0000000000000000000, 0.0000000000000000000 ) ) ;
#13 = LINE ( 'NONE', #74, #374 ) ;
#14 = CARTESIAN_POINT ( 'NONE',  ( -3.065420560747652800, 1.555301434917138400E-015, -12.69999999999999900 ) ) ;
#15 = EDGE_LOOP ( 'NONE', ( #261, #175, #285, #32 ) ) ;
#16 = EDGE_LOOP ( 'NONE', ( #10, #134 ) ) ;
#17 = CC_DESIGN_PERSON_AND_ORGANIZATION_ASSIGNMENT ( #221, #118, ( #314 ) ) ;
#18 = CYLINDRICAL_SURFACE ( 'NONE', #82, 13.00000000000000000 ) ;
#19 = CARTESIAN_POINT ( 'NONE',  ( 142.2999999999999800, 0.0000000000000000000, 12.69999999999999900 ) ) ;
#20 = CARTESIAN_POINT ( 'NONE',  ( 142.2999999999999800, 0.0000000000000000000, 0.0000000000000000000 ) ) ;
#21 = EDGE_CURVE ( 'NONE', #199, #28, #36, .T. ) ;
#22 = DIRECTION ( 'NONE',  ( -1.000000000000000000, -0.0000000000000000000, -0.0000000000000000000 ) ) ;
#23 = APPROVAL_PERSON_ORGANIZATION ( #103, #165, #179 ) ;
#24 = FACE_OUTER_BOUND ( 'NONE', #27, .T. ) ;
#25 = AXIS2_PLACEMENT_3D ( 'NONE', #384, #169, #387 ) ;
#26 = CARTESIAN_POINT ( 'NONE',  ( 135.0000000000000000, 0.0000000000000000000, 8.000000000000000000 ) ) ;
#27 = EDGE_LOOP ( 'NONE', ( #346, #211, #45, #406 ) ) ;
#28 = VERTEX_POINT ( 'NONE', #281 ) ;
#29 = APPLICATION_CONTEXT ( 'configuration controlled 3d designs of mechanical parts and assemblies' ) ;
#30 = CIRCLE ( 'NONE', #414, 12.69999999999999900 ) ;
#31 = DIRECTION ( 'NONE',  ( 0.0000000000000000000, 0.0000000000000000000, 1.000000000000000000 ) ) ;
#32 = ORIENTED_EDGE ( 'NONE', *, *, #251, .F. ) ;
#33 =( GEOMETRIC_REPRESENTATION_CONTEXT ( 3 ) GLOBAL_UNCERTAINTY_ASSIGNED_CONTEXT ( ( #282 ) ) GLOBAL_UNIT_ASSIGNED_CONTEXT ( ( #56, #403, #119 ) ) REPRESENTATION_CONTEXT ( 'NONE', 'WORKASPACE' ) );
#34 = VERTEX_POINT ( 'NONE', #26 ) ;
#35 = EDGE_CURVE ( 'NONE', #322, #199, #345, .T. ) ;
#36 = CIRCLE ( 'NONE', #182, 12.19999999999999900 ) ;
#37 = ORIENTED_EDGE ( 'NONE', *, *, #342, .T. ) ;
#38 = CLOSED_SHELL ( 'NONE', ( #95, #372, #94, #218, #250, #248, #307, #283, #122, #407, #67, #341, #150 ) ) ;
#39 = CYLINDRICAL_SURFACE ( 'NONE', #6, 12.19999999999999900 ) ;
#40 = DIRECTION ( 'NONE',  ( -1.000000000000000000, -0.0000000000000000000, -0.0000000000000000000 ) ) ;
#41 = CC_DESIGN_PERSON_AND_ORGANIZATION_ASSIGNMENT ( #66, #274, ( #380 ) ) ;
#42 = PRODUCT_DEFINITION_SHAPE ( 'NONE', 'NONE',  #314 ) ;
#43 = CARTESIAN_POINT ( 'NONE',  ( 0.0000000000000000000, 0.0000000000000000000, 0.0000000000000000000 ) ) ;
#44 = CARTESIAN_POINT ( 'NONE',  ( -3.065420560747652800, 0.0000000000000000000, 0.0000000000000000000 ) ) ;
#45 = ORIENTED_EDGE ( 'NONE', *, *, #230, .T. ) ;
#46 = EDGE_CURVE ( 'NONE', #184, #305, #390, .T. ) ;
#47 = AXIS2_PLACEMENT_3D ( 'NONE', #347, #260, #351 ) ;
#48 = CARTESIAN_POINT ( 'NONE',  ( 135.0000000000000000, 0.0000000000000000000, 0.0000000000000000000 ) ) ;
#49 = DIRECTION ( 'NONE',  ( -1.000000000000000000, -0.0000000000000000000, -0.0000000000000000000 ) ) ;
#50 = CARTESIAN_POINT ( 'NONE',  ( 142.2999999999999800, 1.494069094959770900E-015, -12.19999999999999900 ) ) ;
#51 = ORIENTED_EDGE ( 'NONE', *, *, #385, .F. ) ;
#52 = AXIS2_PLACEMENT_3D ( 'NONE', #48, #236, #266 ) ;
#53 = APPROVAL_DATE_TIME ( #220, #165 ) ;
#54 = CALENDAR_DATE ( 2019, 28, 10 ) ;
#55 = SECURITY_CLASSIFICATION_LEVEL ( 'unclassified' ) ;
#56 =( LENGTH_UNIT ( ) NAMED_UNIT ( * ) SI_UNIT ( .MILLI., .METRE. ) );
#57 = EDGE_CURVE ( 'NONE', #114, #217, #68, .T. ) ;
#58 = EDGE_LOOP ( 'NONE', ( #2, #133, #412, #186 ) ) ;
#59 = CARTESIAN_POINT ( 'NONE',  ( 135.0000000000000000, 9.797174393178825700E-016, -8.000000000000000000 ) ) ;
#60 = VECTOR ( 'NONE', #393, 1000.000000000000000 ) ;
#61 = APPLICATION_CONTEXT ( 'configuration controlled 3d designs of mechanical parts and assemblies' ) ;
#62 = CC_DESIGN_PERSON_AND_ORGANIZATION_ASSIGNMENT ( #386, #396, ( #380 ) ) ;
#63 = FACE_BOUND ( 'NONE', #210, .T. ) ;
#64 = ORIENTED_EDGE ( 'NONE', *, *, #410, .T. ) ;
#65 = ORIENTED_EDGE ( 'NONE', *, *, #385, .T. ) ;
#66 = PERSON_AND_ORGANIZATION ( #200, #233 ) ;
#67 = ADVANCED_FACE ( 'NONE', ( #216, #128 ), #377, .F. ) ;
#68 = LINE ( 'NONE', #121, #293 ) ;
#69 = VERTEX_POINT ( 'NONE', #188 ) ;
#70 = COORDINATED_UNIVERSAL_TIME_OFFSET ( 8, 0, .AHEAD. ) ;
#71 = AXIS2_PLACEMENT_3D ( 'NONE', #113, #145, #365 ) ;
#72 = DIRECTION ( 'NONE',  ( 0.0000000000000000000, 0.0000000000000000000, 1.000000000000000000 ) ) ;
#73 = CARTESIAN_POINT ( 'NONE',  ( 145.5000000000000000, 0.0000000000000000000, 0.0000000000000000000 ) ) ;
#74 = CARTESIAN_POINT ( 'NONE',  ( -3.065420560747652800, 0.0000000000000000000, 13.00000000000000000 ) ) ;
#75 = AXIS2_PLACEMENT_3D ( 'NONE', #197, #3, #231 ) ;
#76 = CARTESIAN_POINT ( 'NONE',  ( 0.0000000000000000000, 0.0000000000000000000, 0.0000000000000000000 ) ) ;
#77 = ORIENTED_EDGE ( 'NONE', *, *, #35, .T. ) ;
#78 = PLANE ( 'NONE',  #109 ) ;
#79 = FACE_OUTER_BOUND ( 'NONE', #86, .T. ) ;
#80 = ORIENTED_EDGE ( 'NONE', *, *, #21, .T. ) ;
#81 = CARTESIAN_POINT ( 'NONE',  ( 142.2999999999999800, 0.0000000000000000000, 12.19999999999999900 ) ) ;
#82 = AXIS2_PLACEMENT_3D ( 'NONE', #355, #202, #107 ) ;
#83 = DIRECTION ( 'NONE',  ( 0.0000000000000000000, 0.0000000000000000000, 1.000000000000000000 ) ) ;
#84 = COORDINATED_UNIVERSAL_TIME_OFFSET ( 8, 0, .AHEAD. ) ;
#85 = DIRECTION ( 'NONE',  ( -1.000000000000000000, -0.0000000000000000000, -0.0000000000000000000 ) ) ;
#86 = EDGE_LOOP ( 'NONE', ( #156, #383 ) ) ;
#87 = DIRECTION ( 'NONE',  ( 0.0000000000000000000, 0.0000000000000000000, 1.000000000000000000 ) ) ;
#88 = FACE_OUTER_BOUND ( 'NONE', #157, .T. ) ;
#89 = APPROVAL_ROLE ( '' ) ;
#90 = APPROVAL_STATUS ( 'not_yet_approved' ) ;
#91 = EDGE_LOOP ( 'NONE', ( #64, #404, #244, #163 ) ) ;
#92 = CARTESIAN_POINT ( 'NONE',  ( -3.065420560747652800, 0.0000000000000000000, 0.0000000000000000000 ) ) ;
#93 = APPROVAL_PERSON_ORGANIZATION ( #294, #405, #89 ) ;
#94 = ADVANCED_FACE ( 'NONE', ( #296 ), #348, .T. ) ;
#95 = ADVANCED_FACE ( 'NONE', ( #139 ), #245, .T. ) ;
#96 = AXIS2_PLACEMENT_3D ( 'NONE', #212, #312, #286 ) ;
#97 = FACE_OUTER_BOUND ( 'NONE', #297, .T. ) ;
#98 = PLANE ( 'NONE',  #262 ) ;
#99 = LINE ( 'NONE', #14, #60 ) ;
#100 = APPROVAL ( #90, 'Î´Ö¸¶¨' ) ;
#101 = DIRECTION ( 'NONE',  ( -0.0000000000000000000, 0.0000000000000000000, 1.000000000000000000 ) ) ;
#102 = ORIENTED_EDGE ( 'NONE', *, *, #158, .T. ) ;
#103 = PERSON_AND_ORGANIZATION ( #200, #233 ) ;
#104 = DIRECTION ( 'NONE',  ( 0.0000000000000000000, 0.0000000000000000000, 1.000000000000000000 ) ) ;
#105 = LINE ( 'NONE', #106, #273 ) ;
#106 = CARTESIAN_POINT ( 'NONE',  ( -3.065420560747652800, 0.0000000000000000000, 8.000000000000000000 ) ) ;
#107 = DIRECTION ( 'NONE',  ( 0.0000000000000000000, 0.0000000000000000000, 1.000000000000000000 ) ) ;
#108 = EDGE_LOOP ( 'NONE', ( #232, #356 ) ) ;
#109 = AXIS2_PLACEMENT_3D ( 'NONE', #292, #358, #171 ) ;
#110 = CARTESIAN_POINT ( 'NONE',  ( 135.0000000000000000, 0.0000000000000000000, 0.0000000000000000000 ) ) ;
#111 = CIRCLE ( 'NONE', #52, 8.000000000000000000 ) ;
#112 = ORIENTED_EDGE ( 'NONE', *, *, #176, .T. ) ;
#113 = CARTESIAN_POINT ( 'NONE',  ( -3.065420560747652800, 0.0000000000000000000, 0.0000000000000000000 ) ) ;
#114 = VERTEX_POINT ( 'NONE', #129 ) ;
#115 = AXIS2_PLACEMENT_3D ( 'NONE', #295, #138, #174 ) ;
#116 = CIRCLE ( 'NONE', #25, 13.00000000000000000 ) ;
#117 = ORIENTED_EDGE ( 'NONE', *, *, #57, .T. ) ;
#118 = PERSON_AND_ORGANIZATION_ROLE ( 'creator' ) ;
#119 =( NAMED_UNIT ( * ) SI_UNIT ( $, .STERADIAN. ) SOLID_ANGLE_UNIT ( ) );
#120 = CYLINDRICAL_SURFACE ( 'NONE', #327, 8.000000000000000000 ) ;
#121 = CARTESIAN_POINT ( 'NONE',  ( -3.065420560747652800, 1.592040838891559100E-015, -13.00000000000000000 ) ) ;
#122 = ADVANCED_FACE ( 'NONE', ( #227, #63 ), #228, .F. ) ;
#123 = APPROVAL_PERSON_ORGANIZATION ( #166, #100, #304 ) ;
#124 = CIRCLE ( 'NONE', #371, 8.000000000000000000 ) ;
#125 = EDGE_LOOP ( 'NONE', ( #267, #205, #77, #276 ) ) ;
#126 = AXIS2_PLACEMENT_3D ( 'NONE', #44, #259, #161 ) ;
#127 = DIRECTION ( 'NONE',  ( 0.0000000000000000000, 0.0000000000000000000, 1.000000000000000000 ) ) ;
#128 = FACE_OUTER_BOUND ( 'NONE', #173, .T. ) ;
#129 = CARTESIAN_POINT ( 'NONE',  ( 141.5000000000000000, 1.592040838891559100E-015, -13.00000000000000000 ) ) ;
#130 = LOCAL_TIME ( 15, 0, 59.00000000000000000, #354 ) ;
#131 = AXIS2_PLACEMENT_3D ( 'NONE', #275, #330, #272 ) ;
#132 = VECTOR ( 'NONE', #362, 1000.000000000000000 ) ;
#133 = ORIENTED_EDGE ( 'NONE', *, *, #329, .T. ) ;
#134 = ORIENTED_EDGE ( 'NONE', *, *, #142, .F. ) ;
#135 = DIRECTION ( 'NONE',  ( -1.000000000000000000, -0.0000000000000000000, -0.0000000000000000000 ) ) ;
#136 = VERTEX_POINT ( 'NONE', #5 ) ;
#137 = DATE_AND_TIME ( #224, #141 ) ;
#138 = DIRECTION ( 'NONE',  ( -1.000000000000000000, -0.0000000000000000000, -0.0000000000000000000 ) ) ;
#139 = FACE_OUTER_BOUND ( 'NONE', #91, .T. ) ;
#140 = SECURITY_CLASSIFICATION ( '', '', #55 ) ;
#141 = LOCAL_TIME ( 15, 0, 59.00000000000000000, #84 ) ;
#142 = EDGE_CURVE ( 'NONE', #114, #376, #382, .T. ) ;
#143 = ORIENTED_EDGE ( 'NONE', *, *, #375, .T. ) ;
#144 = ORIENTED_EDGE ( 'NONE', *, *, #230, .F. ) ;
#145 = DIRECTION ( 'NONE',  ( -1.000000000000000000, -0.0000000000000000000, -0.0000000000000000000 ) ) ;
#146 = FACE_BOUND ( 'NONE', #108, .T. ) ;
#147 = AXIS2_PLACEMENT_3D ( 'NONE', #399, #328, #209 ) ;
#148 = MECHANICAL_CONTEXT ( 'NONE', #29, 'mechanical' ) ;
#149 = DIRECTION ( 'NONE',  ( 1.000000000000000000, 0.0000000000000000000, 0.0000000000000000000 ) ) ;
#150 = ADVANCED_FACE ( 'NONE', ( #79 ), #349, .F. ) ;
#151 = ORIENTED_EDGE ( 'NONE', *, *, #409, .T. ) ;
#152 = CALENDAR_DATE ( 2019, 28, 10 ) ;
#153 = DATE_AND_TIME ( #319, #408 ) ;
#154 = CC_DESIGN_PERSON_AND_ORGANIZATION_ASSIGNMENT ( #300, #241, ( #140 ) ) ;
#155 = MANIFOLD_SOLID_BREP ( 'Ðý×ª1', #38 ) ;
#156 = ORIENTED_EDGE ( 'NONE', *, *, #410, .F. ) ;
#157 = EDGE_LOOP ( 'NONE', ( #151, #143, #326, #361 ) ) ;
#158 = EDGE_CURVE ( 'NONE', #69, #184, #30, .T. ) ;
#159 = CIRCLE ( 'NONE', #287, 13.00000000000000000 ) ;
#160 = CARTESIAN_POINT ( 'NONE',  ( -3.065420560747652800, 0.0000000000000000000, 0.0000000000000000000 ) ) ;
#161 = DIRECTION ( 'NONE',  ( 0.0000000000000000000, 0.0000000000000000000, 1.000000000000000000 ) ) ;
#162 = ORIENTED_EDGE ( 'NONE', *, *, #168, .T. ) ;
#163 = ORIENTED_EDGE ( 'NONE', *, *, #46, .F. ) ;
#164 = CARTESIAN_POINT ( 'NONE',  ( 145.5000000000000000, 12.69999999999999900, 0.0000000000000000000 ) ) ;
#165 = APPROVAL ( #269, 'Î´Ö¸¶¨' ) ;
#166 = PERSON_AND_ORGANIZATION ( #200, #233 ) ;
#167 = DIRECTION ( 'NONE',  ( -1.000000000000000000, -0.0000000000000000000, -0.0000000000000000000 ) ) ;
#168 = EDGE_CURVE ( 'NONE', #136, #370, #402, .T. ) ;
#169 = DIRECTION ( 'NONE',  ( -1.000000000000000000, -0.0000000000000000000, -0.0000000000000000000 ) ) ;
#170 = DIRECTION ( 'NONE',  ( -1.000000000000000000, -0.0000000000000000000, -0.0000000000000000000 ) ) ;
#171 = DIRECTION ( 'NONE',  ( 0.0000000000000000000, 0.0000000000000000000, -1.000000000000000000 ) ) ;
#172 = AXIS2_PLACEMENT_3D ( 'NONE', #20, #22, #87 ) ;
#173 = EDGE_LOOP ( 'NONE', ( #278, #65 ) ) ;
#174 = DIRECTION ( 'NONE',  ( 0.0000000000000000000, 0.0000000000000000000, 1.000000000000000000 ) ) ;
#175 = ORIENTED_EDGE ( 'NONE', *, *, #258, .T. ) ;
#176 = EDGE_CURVE ( 'NONE', #217, #391, #116, .T. ) ;
#177 = CARTESIAN_POINT ( 'NONE',  ( 0.0000000000000000000, 0.0000000000000000000, 0.0000000000000000000 ) ) ;
#178 = CARTESIAN_POINT ( 'NONE',  ( -3.065420560747652800, 1.494069094959770900E-015, -12.19999999999999900 ) ) ;
#179 = APPROVAL_ROLE ( '' ) ;
#180 = PRODUCT_RELATED_PRODUCT_CATEGORY ( 'detail', '', ( #389 ) ) ;
#181 = CYLINDRICAL_SURFACE ( 'NONE', #126, 8.000000000000000000 ) ;
#182 = AXIS2_PLACEMENT_3D ( 'NONE', #254, #247, #31 ) ;
#183 = DIRECTION ( 'NONE',  ( 1.000000000000000000, 0.0000000000000000000, 0.0000000000000000000 ) ) ;
#184 = VERTEX_POINT ( 'NONE', #257 ) ;
#185 = DIRECTION ( 'NONE',  ( -1.000000000000000000, -0.0000000000000000000, -0.0000000000000000000 ) ) ;
#186 = ORIENTED_EDGE ( 'NONE', *, *, #168, .F. ) ;
#187 = DIRECTION ( 'NONE',  ( 0.0000000000000000000, 0.0000000000000000000, 1.000000000000000000 ) ) ;
#188 = CARTESIAN_POINT ( 'NONE',  ( 145.5000000000000000, 1.555301434917138400E-015, -12.69999999999999900 ) ) ;
#189 = AXIS2_PLACEMENT_3D ( 'NONE', #315, #318, #127 ) ;
#190 = DIRECTION ( 'NONE',  ( -1.000000000000000000, -0.0000000000000000000, -0.0000000000000000000 ) ) ;
#191 = EDGE_CURVE ( 'NONE', #316, #322, #264, .T. ) ;
#192 = CIRCLE ( 'NONE', #96, 12.19999999999999900 ) ;
#193 = DIRECTION ( 'NONE',  ( 0.0000000000000000000, 0.0000000000000000000, 1.000000000000000000 ) ) ;
#194 = AXIS2_PLACEMENT_3D ( 'NONE', #240, #85, #213 ) ;
#195 = CARTESIAN_POINT ( 'NONE',  ( 135.0000000000000000, 1.592040838891559100E-015, -13.00000000000000000 ) ) ;
#196 = CIRCLE ( 'NONE', #398, 13.00000000000000000 ) ;
#197 = CARTESIAN_POINT ( 'NONE',  ( 141.5000000000000000, 13.00000000000000000, 0.0000000000000000000 ) ) ;
#198 = CARTESIAN_POINT ( 'NONE',  ( 141.5000000000000000, 0.0000000000000000000, 12.19999999999999900 ) ) ;
#199 = VERTEX_POINT ( 'NONE', #198 ) ;
#200 = PERSON ( 'Î´Ö¸¶¨', 'Î´Ö¸¶¨', 'Î´Ö¸¶¨', ('Î´Ö¸¶¨'), ('Î´Ö¸¶¨'), ('Î´Ö¸¶¨') ) ;
#201 = CYLINDRICAL_SURFACE ( 'NONE', #71, 12.19999999999999900 ) ;
#202 = DIRECTION ( 'NONE',  ( -1.000000000000000000, -0.0000000000000000000, -0.0000000000000000000 ) ) ;
#203 = DIRECTION ( 'NONE',  ( -1.000000000000000000, -0.0000000000000000000, -0.0000000000000000000 ) ) ;
#204 = AXIS2_PLACEMENT_3D ( 'NONE', #164, #381, #101 ) ;
#205 = ORIENTED_EDGE ( 'NONE', *, *, #191, .T. ) ;
#206 = CARTESIAN_POINT ( 'NONE',  ( 141.5000000000000000, 0.0000000000000000000, 13.00000000000000000 ) ) ;
#207 = EDGE_CURVE ( 'NONE', #391, #217, #159, .T. ) ;
#208 = VECTOR ( 'NONE', #135, 1000.000000000000000 ) ;
#209 = DIRECTION ( 'NONE',  ( 0.0000000000000000000, 0.0000000000000000000, 1.000000000000000000 ) ) ;
#210 = EDGE_LOOP ( 'NONE', ( #80, #223 ) ) ;
#211 = ORIENTED_EDGE ( 'NONE', *, *, #142, .T. ) ;
#212 = CARTESIAN_POINT ( 'NONE',  ( 141.5000000000000000, 0.0000000000000000000, 0.0000000000000000000 ) ) ;
#213 = DIRECTION ( 'NONE',  ( 0.0000000000000000000, 0.0000000000000000000, 1.000000000000000000 ) ) ;
#214 = AXIS2_PLACEMENT_3D ( 'NONE', #92, #340, #415 ) ;
#215 = DESIGN_CONTEXT ( 'detailed design', #61, 'design' ) ;
#216 = FACE_BOUND ( 'NONE', #401, .T. ) ;
#217 = VERTEX_POINT ( 'NONE', #195 ) ;
#218 = ADVANCED_FACE ( 'NONE', ( #303 ), #181, .T. ) ;
#219 = DIRECTION ( 'NONE',  ( -1.000000000000000000, -0.0000000000000000000, -0.0000000000000000000 ) ) ;
#220 = DATE_AND_TIME ( #152, #357 ) ;
#221 = PERSON_AND_ORGANIZATION ( #200, #233 ) ;
#222 = FACE_OUTER_BOUND ( 'NONE', #400, .T. ) ;
#223 = ORIENTED_EDGE ( 'NONE', *, *, #11, .T. ) ;
#224 = CALENDAR_DATE ( 2019, 28, 10 ) ;
#225 = CIRCLE ( 'NONE', #194, 12.69999999999999900 ) ;
#226 = DIRECTION ( 'NONE',  ( 0.0000000000000000000, 0.0000000000000000000, 1.000000000000000000 ) ) ;
#227 = FACE_OUTER_BOUND ( 'NONE', #16, .T. ) ;
#228 = PLANE ( 'NONE',  #75 ) ;
#229 = CC_DESIGN_APPROVAL ( #165, ( #140 ) ) ;
#230 = EDGE_CURVE ( 'NONE', #376, #391, #13, .T. ) ;
#231 = DIRECTION ( 'NONE',  ( -0.0000000000000000000, 0.0000000000000000000, 1.000000000000000000 ) ) ;
#232 = ORIENTED_EDGE ( 'NONE', *, *, #308, .F. ) ;
#233 = ORGANIZATION ( 'Î´Ö¸¶¨', 'Î´Ö¸¶¨', '' ) ;
#234 = CIRCLE ( 'NONE', #147, 12.69999999999999900 ) ;
#235 = DIRECTION ( 'NONE',  ( 1.000000000000000000, 0.0000000000000000000, 0.0000000000000000000 ) ) ;
#236 = DIRECTION ( 'NONE',  ( -1.000000000000000000, -0.0000000000000000000, -0.0000000000000000000 ) ) ;
#237 = CARTESIAN_POINT ( 'NONE',  ( 0.0000000000000000000, 0.0000000000000000000, 8.000000000000000000 ) ) ;
#238 = EDGE_CURVE ( 'NONE', #370, #136, #332, .T. ) ;
#239 = APPROVAL_DATE_TIME ( #252, #100 ) ;
#240 = CARTESIAN_POINT ( 'NONE',  ( 145.5000000000000000, 0.0000000000000000000, 0.0000000000000000000 ) ) ;
#241 = PERSON_AND_ORGANIZATION_ROLE ( 'classification_officer' ) ;
#242 = CC_DESIGN_DATE_AND_TIME_ASSIGNMENT ( #137, #279, ( #314 ) ) ;
#243 = ORIENTED_EDGE ( 'NONE', *, *, #191, .F. ) ;
#244 = ORIENTED_EDGE ( 'NONE', *, *, #388, .F. ) ;
#245 = CYLINDRICAL_SURFACE ( 'NONE', #214, 12.69999999999999900 ) ;
#246 = PERSON_AND_ORGANIZATION_ROLE ( 'design_owner' ) ;
#247 = DIRECTION ( 'NONE',  ( -1.000000000000000000, -0.0000000000000000000, -0.0000000000000000000 ) ) ;
#248 = ADVANCED_FACE ( 'NONE', ( #291 ), #120, .T. ) ;
#249 = CC_DESIGN_SECURITY_CLASSIFICATION ( #140, ( #380 ) ) ;
#250 = ADVANCED_FACE ( 'NONE', ( #222 ), #98, .F. ) ;
#251 = EDGE_CURVE ( 'NONE', #34, #370, #105, .T. ) ;
#252 = DATE_AND_TIME ( #302, #373 ) ;
#253 = LINE ( 'NONE', #323, #208 ) ;
#254 = CARTESIAN_POINT ( 'NONE',  ( 141.5000000000000000, 0.0000000000000000000, 0.0000000000000000000 ) ) ;
#255 = AXIS2_PLACEMENT_3D ( 'NONE', #177, #187, #183 ) ;
#256 = DIRECTION ( 'NONE',  ( -1.000000000000000000, -0.0000000000000000000, -0.0000000000000000000 ) ) ;
#257 = CARTESIAN_POINT ( 'NONE',  ( 145.5000000000000000, 0.0000000000000000000, 12.69999999999999900 ) ) ;
#258 = EDGE_CURVE ( 'NONE', #411, #136, #253, .T. ) ;
#259 = DIRECTION ( 'NONE',  ( -1.000000000000000000, -0.0000000000000000000, -0.0000000000000000000 ) ) ;
#260 = DIRECTION ( 'NONE',  ( -1.000000000000000000, -0.0000000000000000000, -0.0000000000000000000 ) ) ;
#261 = ORIENTED_EDGE ( 'NONE', *, *, #308, .T. ) ;
#262 = AXIS2_PLACEMENT_3D ( 'NONE', #320, #235, #392 ) ;
#263 = COORDINATED_UNIVERSAL_TIME_OFFSET ( 8, 0, .AHEAD. ) ;
#264 = CIRCLE ( 'NONE', #47, 12.19999999999999900 ) ;
#265 = DIRECTION ( 'NONE',  ( -1.000000000000000000, -0.0000000000000000000, -0.0000000000000000000 ) ) ;
#266 = DIRECTION ( 'NONE',  ( 0.0000000000000000000, 0.0000000000000000000, 1.000000000000000000 ) ) ;
#267 = ORIENTED_EDGE ( 'NONE', *, *, #375, .F. ) ;
#268 = CIRCLE ( 'NONE', #131, 12.69999999999999900 ) ;
#269 = APPROVAL_STATUS ( 'not_yet_approved' ) ;
#270 = ORIENTED_EDGE ( 'NONE', *, *, #409, .F. ) ;
#271 = CARTESIAN_POINT ( 'NONE',  ( 135.0000000000000000, 0.0000000000000000000, 13.00000000000000000 ) ) ;
#272 = DIRECTION ( 'NONE',  ( 0.0000000000000000000, 0.0000000000000000000, 1.000000000000000000 ) ) ;
#273 = VECTOR ( 'NONE', #265, 1000.000000000000000 ) ;
#274 = PERSON_AND_ORGANIZATION_ROLE ( 'creator' ) ;
#275 = CARTESIAN_POINT ( 'NONE',  ( 142.2999999999999800, 0.0000000000000000000, 0.0000000000000000000 ) ) ;
#276 = ORIENTED_EDGE ( 'NONE', *, *, #11, .F. ) ;
#277 = CARTESIAN_POINT ( 'NONE',  ( -3.065420560747652800, 0.0000000000000000000, 12.19999999999999900 ) ) ;
#278 = ORIENTED_EDGE ( 'NONE', *, *, #388, .T. ) ;
#279 = DATE_TIME_ROLE ( 'creation_date' ) ;
#280 = CC_DESIGN_PERSON_AND_ORGANIZATION_ASSIGNMENT ( #378, #246, ( #389 ) ) ;
#281 = CARTESIAN_POINT ( 'NONE',  ( 141.5000000000000000, 1.494069094959770900E-015, -12.19999999999999900 ) ) ;
#282 = UNCERTAINTY_MEASURE_WITH_UNIT (LENGTH_MEASURE( 1.000000000000000100E-005 ), #56, 'distance_accuracy_value', 'NONE');
#283 = ADVANCED_FACE ( 'NONE', ( #24 ), #18, .T. ) ;
#284 = CC_DESIGN_APPROVAL ( #405, ( #380 ) ) ;
#285 = ORIENTED_EDGE ( 'NONE', *, *, #238, .F. ) ;
#286 = DIRECTION ( 'NONE',  ( 0.0000000000000000000, 0.0000000000000000000, 1.000000000000000000 ) ) ;
#287 = AXIS2_PLACEMENT_3D ( 'NONE', #379, #40, #72 ) ;
#288 = CARTESIAN_POINT ( 'NONE',  ( -3.065420560747652800, 0.0000000000000000000, 0.0000000000000000000 ) ) ;
#289 = DATE_AND_TIME ( #54, #130 ) ;
#290 = DIRECTION ( 'NONE',  ( -1.000000000000000000, -0.0000000000000000000, -0.0000000000000000000 ) ) ;
#291 = FACE_OUTER_BOUND ( 'NONE', #58, .T. ) ;
#292 = CARTESIAN_POINT ( 'NONE',  ( 135.0000000000000000, 8.000000000000000000, 0.0000000000000000000 ) ) ;
#293 = VECTOR ( 'NONE', #367, 1000.000000000000000 ) ;
#294 = PERSON_AND_ORGANIZATION ( #200, #233 ) ;
#295 = CARTESIAN_POINT ( 'NONE',  ( -3.065420560747652800, 0.0000000000000000000, 0.0000000000000000000 ) ) ;
#296 = FACE_OUTER_BOUND ( 'NONE', #298, .T. ) ;
#297 = EDGE_LOOP ( 'NONE', ( #310, #112 ) ) ;
#298 = EDGE_LOOP ( 'NONE', ( #37, #117, #317, #144 ) ) ;
#299 = EDGE_CURVE ( 'NONE', #69, #321, #99, .T. ) ;
#300 = PERSON_AND_ORGANIZATION ( #200, #233 ) ;
#301 = CC_DESIGN_DATE_AND_TIME_ASSIGNMENT ( #289, #395, ( #140 ) ) ;
#302 = CALENDAR_DATE ( 2019, 28, 10 ) ;
#303 = FACE_OUTER_BOUND ( 'NONE', #15, .T. ) ;
#304 = APPROVAL_ROLE ( '' ) ;
#305 = VERTEX_POINT ( 'NONE', #19 ) ;
#306 = AXIS2_PLACEMENT_3D ( 'NONE', #76, #290, #226 ) ;
#307 = ADVANCED_FACE ( 'NONE', ( #146, #97 ), #78, .F. ) ;
#308 = EDGE_CURVE ( 'NONE', #34, #411, #111, .T. ) ;
#309 = VECTOR ( 'NONE', #219, 1000.000000000000000 ) ;
#310 = ORIENTED_EDGE ( 'NONE', *, *, #207, .T. ) ;
#311 = CYLINDRICAL_SURFACE ( 'NONE', #115, 12.69999999999999900 ) ;
#312 = DIRECTION ( 'NONE',  ( -1.000000000000000000, -0.0000000000000000000, -0.0000000000000000000 ) ) ;
#313 = DIRECTION ( 'NONE',  ( 0.0000000000000000000, 0.0000000000000000000, 1.000000000000000000 ) ) ;
#314 = PRODUCT_DEFINITION ( 'Î´Öª', '', #380, #215 ) ;
#315 = CARTESIAN_POINT ( 'NONE',  ( 141.5000000000000000, 0.0000000000000000000, 0.0000000000000000000 ) ) ;
#316 = VERTEX_POINT ( 'NONE', #50 ) ;
#317 = ORIENTED_EDGE ( 'NONE', *, *, #207, .F. ) ;
#318 = DIRECTION ( 'NONE',  ( -1.000000000000000000, -0.0000000000000000000, -0.0000000000000000000 ) ) ;
#319 = CALENDAR_DATE ( 2019, 28, 10 ) ;
#320 = CARTESIAN_POINT ( 'NONE',  ( 0.0000000000000000000, 0.0000000000000000000, 0.0000000000000000000 ) ) ;
#321 = VERTEX_POINT ( 'NONE', #325 ) ;
#322 = VERTEX_POINT ( 'NONE', #81 ) ;
#323 = CARTESIAN_POINT ( 'NONE',  ( -3.065420560747652800, 9.797174393178825700E-016, -8.000000000000000000 ) ) ;
#324 = CIRCLE ( 'NONE', #172, 12.19999999999999900 ) ;
#325 = CARTESIAN_POINT ( 'NONE',  ( 142.2999999999999800, 1.555301434917138400E-015, -12.69999999999999900 ) ) ;
#326 = ORIENTED_EDGE ( 'NONE', *, *, #21, .F. ) ;
#327 = AXIS2_PLACEMENT_3D ( 'NONE', #288, #1, #7 ) ;
#328 = DIRECTION ( 'NONE',  ( -1.000000000000000000, -0.0000000000000000000, -0.0000000000000000000 ) ) ;
#329 = EDGE_CURVE ( 'NONE', #411, #34, #124, .T. ) ;
#330 = DIRECTION ( 'NONE',  ( -1.000000000000000000, -0.0000000000000000000, -0.0000000000000000000 ) ) ;
#331 = SHAPE_DEFINITION_REPRESENTATION ( #42, #343 ) ;
#332 = CIRCLE ( 'NONE', #306, 8.000000000000000000 ) ;
#333 = VECTOR ( 'NONE', #190, 1000.000000000000000 ) ;
#334 = ORIENTED_EDGE ( 'NONE', *, *, #238, .T. ) ;
#335 = EDGE_LOOP ( 'NONE', ( #8, #102, #352, #51 ) ) ;
#336 = APPROVAL_STATUS ( 'not_yet_approved' ) ;
#337 = CC_DESIGN_APPROVAL ( #100, ( #314 ) ) ;
#338 = CARTESIAN_POINT ( 'NONE',  ( 142.2999999999999800, 12.19999999999999900, 0.0000000000000000000 ) ) ;
#339 = LINE ( 'NONE', #178, #132 ) ;
#340 = DIRECTION ( 'NONE',  ( -1.000000000000000000, -0.0000000000000000000, -0.0000000000000000000 ) ) ;
#341 = ADVANCED_FACE ( 'NONE', ( #413 ), #311, .T. ) ;
#342 = EDGE_CURVE ( 'NONE', #376, #114, #196, .T. ) ;
#343 = ADVANCED_BREP_SHAPE_REPRESENTATION ( 'WWL15-250A STEPÍ¼', ( #155, #255 ), #33 ) ;
#344 = CARTESIAN_POINT ( 'NONE',  ( -3.065420560747652800, 0.0000000000000000000, 12.69999999999999900 ) ) ;
#345 = LINE ( 'NONE', #277, #309 ) ;
#346 = ORIENTED_EDGE ( 'NONE', *, *, #57, .F. ) ;
#347 = CARTESIAN_POINT ( 'NONE',  ( 142.2999999999999800, 0.0000000000000000000, 0.0000000000000000000 ) ) ;
#348 = CYLINDRICAL_SURFACE ( 'NONE', #350, 13.00000000000000000 ) ;
#349 = PLANE ( 'NONE',  #204 ) ;
#350 = AXIS2_PLACEMENT_3D ( 'NONE', #160, #185, #193 ) ;
#351 = DIRECTION ( 'NONE',  ( 0.0000000000000000000, 0.0000000000000000000, 1.000000000000000000 ) ) ;
#352 = ORIENTED_EDGE ( 'NONE', *, *, #46, .T. ) ;
#353 = DIRECTION ( 'NONE',  ( 0.0000000000000000000, 0.0000000000000000000, 1.000000000000000000 ) ) ;
#354 = COORDINATED_UNIVERSAL_TIME_OFFSET ( 8, 0, .AHEAD. ) ;
#355 = CARTESIAN_POINT ( 'NONE',  ( -3.065420560747652800, 0.0000000000000000000, 0.0000000000000000000 ) ) ;
#356 = ORIENTED_EDGE ( 'NONE', *, *, #329, .F. ) ;
#357 = LOCAL_TIME ( 15, 0, 59.00000000000000000, #263 ) ;
#358 = DIRECTION ( 'NONE',  ( 1.000000000000000000, 0.0000000000000000000, 0.0000000000000000000 ) ) ;
#359 = AXIS2_PLACEMENT_3D ( 'NONE', #43, #9, #313 ) ;
#360 = DIRECTION ( 'NONE',  ( 0.0000000000000000000, 0.0000000000000000000, 1.000000000000000000 ) ) ;
#361 = ORIENTED_EDGE ( 'NONE', *, *, #35, .F. ) ;
#362 = DIRECTION ( 'NONE',  ( -1.000000000000000000, -0.0000000000000000000, -0.0000000000000000000 ) ) ;
#363 = FACE_OUTER_BOUND ( 'NONE', #125, .T. ) ;
#364 = AXIS2_PLACEMENT_3D ( 'NONE', #338, #149, #369 ) ;
#365 = DIRECTION ( 'NONE',  ( 0.0000000000000000000, 0.0000000000000000000, 1.000000000000000000 ) ) ;
#366 = APPLICATION_PROTOCOL_DEFINITION ( 'international standard', 'config_control_design', 1994, #61 ) ;
#367 = DIRECTION ( 'NONE',  ( -1.000000000000000000, -0.0000000000000000000, -0.0000000000000000000 ) ) ;
#368 = APPLICATION_PROTOCOL_DEFINITION ( 'international standard', 'config_control_design', 1994, #29 ) ;
#369 = DIRECTION ( 'NONE',  ( 0.0000000000000000000, 0.0000000000000000000, -1.000000000000000000 ) ) ;
#370 = VERTEX_POINT ( 'NONE', #237 ) ;
#371 = AXIS2_PLACEMENT_3D ( 'NONE', #110, #170, #83 ) ;
#372 = ADVANCED_FACE ( 'NONE', ( #88 ), #39, .T. ) ;
#373 = LOCAL_TIME ( 15, 0, 59.00000000000000000, #70 ) ;
#374 = VECTOR ( 'NONE', #167, 1000.000000000000000 ) ;
#375 = EDGE_CURVE ( 'NONE', #316, #28, #339, .T. ) ;
#376 = VERTEX_POINT ( 'NONE', #206 ) ;
#377 = PLANE ( 'NONE',  #364 ) ;
#378 = PERSON_AND_ORGANIZATION ( #200, #233 ) ;
#379 = CARTESIAN_POINT ( 'NONE',  ( 135.0000000000000000, 0.0000000000000000000, 0.0000000000000000000 ) ) ;
#380 = PRODUCT_DEFINITION_FORMATION_WITH_SPECIFIED_SOURCE ( 'ÈÎºÎ', '', #389, .NOT_KNOWN. ) ;
#381 = DIRECTION ( 'NONE',  ( -1.000000000000000000, 0.0000000000000000000, -0.0000000000000000000 ) ) ;
#382 = CIRCLE ( 'NONE', #189, 13.00000000000000000 ) ;
#383 = ORIENTED_EDGE ( 'NONE', *, *, #158, .F. ) ;
#384 = CARTESIAN_POINT ( 'NONE',  ( 135.0000000000000000, 0.0000000000000000000, 0.0000000000000000000 ) ) ;
#385 = EDGE_CURVE ( 'NONE', #321, #305, #234, .T. ) ;
#386 = PERSON_AND_ORGANIZATION ( #200, #233 ) ;
#387 = DIRECTION ( 'NONE',  ( 0.0000000000000000000, 0.0000000000000000000, 1.000000000000000000 ) ) ;
#388 = EDGE_CURVE ( 'NONE', #305, #321, #268, .T. ) ;
#389 = PRODUCT ( 'WWL15-250A STEPÍ¼', 'WWL15-250A STEPÍ¼', '', ( #148 ) ) ;
#390 = LINE ( 'NONE', #344, #333 ) ;
#391 = VERTEX_POINT ( 'NONE', #271 ) ;
#392 = DIRECTION ( 'NONE',  ( 0.0000000000000000000, 0.0000000000000000000, -1.000000000000000000 ) ) ;
#393 = DIRECTION ( 'NONE',  ( -1.000000000000000000, -0.0000000000000000000, -0.0000000000000000000 ) ) ;
#394 = CARTESIAN_POINT ( 'NONE',  ( -3.065420560747652800, 0.0000000000000000000, 0.0000000000000000000 ) ) ;
#395 = DATE_TIME_ROLE ( 'classification_date' ) ;
#396 = PERSON_AND_ORGANIZATION_ROLE ( 'design_supplier' ) ;
#397 = APPROVAL_DATE_TIME ( #153, #405 ) ;
#398 = AXIS2_PLACEMENT_3D ( 'NONE', #12, #203, #360 ) ;
#399 = CARTESIAN_POINT ( 'NONE',  ( 142.2999999999999800, 0.0000000000000000000, 0.0000000000000000000 ) ) ;
#400 = EDGE_LOOP ( 'NONE', ( #334, #162 ) ) ;
#401 = EDGE_LOOP ( 'NONE', ( #270, #243 ) ) ;
#402 = CIRCLE ( 'NONE', #359, 8.000000000000000000 ) ;
#403 =( NAMED_UNIT ( * ) PLANE_ANGLE_UNIT ( ) SI_UNIT ( $, .RADIAN. ) );
#404 = ORIENTED_EDGE ( 'NONE', *, *, #299, .T. ) ;
#405 = APPROVAL ( #336, 'Î´Ö¸¶¨' ) ;
#406 = ORIENTED_EDGE ( 'NONE', *, *, #176, .F. ) ;
#407 = ADVANCED_FACE ( 'NONE', ( #363 ), #201, .T. ) ;
#408 = LOCAL_TIME ( 15, 0, 59.00000000000000000, #4 ) ;
#409 = EDGE_CURVE ( 'NONE', #322, #316, #324, .T. ) ;
#410 = EDGE_CURVE ( 'NONE', #184, #69, #225, .T. ) ;
#411 = VERTEX_POINT ( 'NONE', #59 ) ;
#412 = ORIENTED_EDGE ( 'NONE', *, *, #251, .T. ) ;
#413 = FACE_OUTER_BOUND ( 'NONE', #335, .T. ) ;
#414 = AXIS2_PLACEMENT_3D ( 'NONE', #73, #256, #353 ) ;
#415 = DIRECTION ( 'NONE',  ( 0.0000000000000000000, 0.0000000000000000000, 1.000000000000000000 ) ) ;
ENDSEC;
END-ISO-10303-21;
