ISO-10303-21;
HEADER;
FILE_DESCRIPTION (( 'STEP AP203' ),
    '1' );
FILE_NAME ('WWL20-110ATS STEPÍ¼.STEP',
    '2019-10-28T07:22:04',
    ( '' ),
    ( '' ),
    'SwSTEP 2.0',
    'SolidWorks 2014',
    '' );
FILE_SCHEMA (( 'CONFIG_CONTROL_DESIGN' ));
ENDSEC;

DATA;
#1 = CYLINDRICAL_SURFACE ( 'NONE', #63, 8.000000000000000000 ) ;
#2 = FACE_BOUND ( 'NONE', #160, .T. ) ;
#3 = MANIFOLD_SOLID_BREP ( 'Ðý×ª1', #205 ) ;
#4 = EDGE_LOOP ( 'NONE', ( #392, #329, #159, #82 ) ) ;
#5 = PLANE ( 'NONE',  #339 ) ;
#6 = PERSON_AND_ORGANIZATION ( #84, #317 ) ;
#7 = EDGE_CURVE ( 'NONE', #333, #304, #244, .T. ) ;
#8 = LINE ( 'NONE', #273, #52 ) ;
#9 = DIRECTION ( 'NONE',  ( -1.000000000000000000, -0.0000000000000000000, -0.0000000000000000000 ) ) ;
#10 = LINE ( 'NONE', #141, #287 ) ;
#11 = CARTESIAN_POINT ( 'NONE',  ( 73.80000000000001100, 1.494069094959770900E-015, -12.19999999999999900 ) ) ;
#12 = CALENDAR_DATE ( 2019, 28, 10 ) ;
#13 = CC_DESIGN_PERSON_AND_ORGANIZATION_ASSIGNMENT ( #326, #194, ( #264 ) ) ;
#14 = CYLINDRICAL_SURFACE ( 'NONE', #404, 12.69999999999999900 ) ;
#15 = VERTEX_POINT ( 'NONE', #274 ) ;
#16 = CARTESIAN_POINT ( 'NONE',  ( 67.29999999999999700, 0.0000000000000000000, 0.0000000000000000000 ) ) ;
#17 = AXIS2_PLACEMENT_3D ( 'NONE', #247, #191, #308 ) ;
#18 = CIRCLE ( 'NONE', #258, 8.000000000000001800 ) ;
#19 = APPROVAL_STATUS ( 'not_yet_approved' ) ;
#20 = CARTESIAN_POINT ( 'NONE',  ( 74.59999999999999400, 0.0000000000000000000, 0.0000000000000000000 ) ) ;
#21 = LINE ( 'NONE', #348, #64 ) ;
#22 = CIRCLE ( 'NONE', #356, 12.19999999999999900 ) ;
#23 = CARTESIAN_POINT ( 'NONE',  ( 67.29999999999999700, 0.0000000000000000000, 0.0000000000000000000 ) ) ;
#24 = DIRECTION ( 'NONE',  ( -0.0000000000000000000, 0.0000000000000000000, 1.000000000000000000 ) ) ;
#25 = CARTESIAN_POINT ( 'NONE',  ( 73.80000000000001100, 0.0000000000000000000, 0.0000000000000000000 ) ) ;
#26 = CARTESIAN_POINT ( 'NONE',  ( -2.273684210526313100, 0.0000000000000000000, 0.0000000000000000000 ) ) ;
#27 = CIRCLE ( 'NONE', #100, 12.69999999999999900 ) ;
#28 = FACE_OUTER_BOUND ( 'NONE', #134, .T. ) ;
#29 = CC_DESIGN_PERSON_AND_ORGANIZATION_ASSIGNMENT ( #248, #93, ( #265 ) ) ;
#30 = CARTESIAN_POINT ( 'NONE',  ( 74.59999999999999400, 0.0000000000000000000, 12.19999999999999900 ) ) ;
#31 = ORIENTED_EDGE ( 'NONE', *, *, #199, .F. ) ;
#32 = ORIENTED_EDGE ( 'NONE', *, *, #321, .F. ) ;
#33 = DIRECTION ( 'NONE',  ( -1.000000000000000000, -0.0000000000000000000, -0.0000000000000000000 ) ) ;
#34 = VERTEX_POINT ( 'NONE', #30 ) ;
#35 = CC_DESIGN_PERSON_AND_ORGANIZATION_ASSIGNMENT ( #50, #311, ( #285 ) ) ;
#36 = AXIS2_PLACEMENT_3D ( 'NONE', #26, #196, #282 ) ;
#37 = CARTESIAN_POINT ( 'NONE',  ( 73.80000000000001100, 1.592040838891558900E-015, -12.99999999999999800 ) ) ;
#38 = CARTESIAN_POINT ( 'NONE',  ( 77.80000000000001100, 0.0000000000000000000, 0.0000000000000000000 ) ) ;
#39 = ORIENTED_EDGE ( 'NONE', *, *, #104, .F. ) ;
#40 = APPROVAL_PERSON_ORGANIZATION ( #193, #310, #251 ) ;
#41 = AXIS2_PLACEMENT_3D ( 'NONE', #386, #228, #415 ) ;
#42 = DIRECTION ( 'NONE',  ( -1.000000000000000000, -0.0000000000000000000, -0.0000000000000000000 ) ) ;
#43 = ORIENTED_EDGE ( 'NONE', *, *, #7, .F. ) ;
#44 = VERTEX_POINT ( 'NONE', #354 ) ;
#45 = DIRECTION ( 'NONE',  ( 0.0000000000000000000, 0.0000000000000000000, 1.000000000000000000 ) ) ;
#46 = FACE_OUTER_BOUND ( 'NONE', #260, .T. ) ;
#47 = ORIENTED_EDGE ( 'NONE', *, *, #150, .F. ) ;
#48 = APPLICATION_PROTOCOL_DEFINITION ( 'international standard', 'config_control_design', 1994, #345 ) ;
#49 = AXIS2_PLACEMENT_3D ( 'NONE', #307, #122, #375 ) ;
#50 = PERSON_AND_ORGANIZATION ( #84, #317 ) ;
#51 = EDGE_CURVE ( 'NONE', #355, #278, #22, .T. ) ;
#52 = VECTOR ( 'NONE', #344, 1000.000000000000000 ) ;
#53 = CARTESIAN_POINT ( 'NONE',  ( -2.273684210526313100, 1.555301434917138400E-015, -12.69999999999999900 ) ) ;
#54 = MECHANICAL_CONTEXT ( 'NONE', #345, 'mechanical' ) ;
#55 = VERTEX_POINT ( 'NONE', #176 ) ;
#56 = DIRECTION ( 'NONE',  ( 0.0000000000000000000, 0.0000000000000000000, 1.000000000000000000 ) ) ;
#57 = CC_DESIGN_PERSON_AND_ORGANIZATION_ASSIGNMENT ( #238, #402, ( #362 ) ) ;
#58 = EDGE_LOOP ( 'NONE', ( #388, #86 ) ) ;
#59 = AXIS2_PLACEMENT_3D ( 'NONE', #288, #170, #324 ) ;
#60 = DATE_AND_TIME ( #391, #231 ) ;
#61 = CARTESIAN_POINT ( 'NONE',  ( -2.273684210526313100, 0.0000000000000000000, 0.0000000000000000000 ) ) ;
#62 = FACE_OUTER_BOUND ( 'NONE', #320, .T. ) ;
#63 = AXIS2_PLACEMENT_3D ( 'NONE', #192, #219, #158 ) ;
#64 = VECTOR ( 'NONE', #227, 1000.000000000000000 ) ;
#65 = CARTESIAN_POINT ( 'NONE',  ( 74.59999999999999400, 12.19999999999999900, 0.0000000000000000000 ) ) ;
#66 = ORIENTED_EDGE ( 'NONE', *, *, #261, .F. ) ;
#67 = DIRECTION ( 'NONE',  ( -1.000000000000000000, -0.0000000000000000000, -0.0000000000000000000 ) ) ;
#68 = FACE_BOUND ( 'NONE', #123, .T. ) ;
#69 = EDGE_CURVE ( 'NONE', #34, #401, #76, .T. ) ;
#70 = CIRCLE ( 'NONE', #363, 12.19999999999999900 ) ;
#71 = ORIENTED_EDGE ( 'NONE', *, *, #315, .F. ) ;
#72 = VERTEX_POINT ( 'NONE', #229 ) ;
#73 = EDGE_CURVE ( 'NONE', #99, #55, #190, .T. ) ;
#74 = ADVANCED_FACE ( 'NONE', ( #262 ), #395, .T. ) ;
#75 = VECTOR ( 'NONE', #242, 1000.000000000000000 ) ;
#76 = CIRCLE ( 'NONE', #59, 12.19999999999999900 ) ;
#77 = PERSON_AND_ORGANIZATION ( #84, #317 ) ;
#78 = CARTESIAN_POINT ( 'NONE',  ( 67.29999999999999700, 0.0000000000000000000, 0.0000000000000000000 ) ) ;
#79 = DIRECTION ( 'NONE',  ( 1.000000000000000000, 0.0000000000000000000, 0.0000000000000000000 ) ) ;
#80 = FACE_OUTER_BOUND ( 'NONE', #245, .T. ) ;
#81 = EDGE_CURVE ( 'NONE', #401, #34, #70, .T. ) ;
#82 = ORIENTED_EDGE ( 'NONE', *, *, #234, .F. ) ;
#83 = DIRECTION ( 'NONE',  ( 0.0000000000000000000, 0.0000000000000000000, -1.000000000000000000 ) ) ;
#84 = PERSON ( 'Î´Ö¸¶¨', 'Î´Ö¸¶¨', 'Î´Ö¸¶¨', ('Î´Ö¸¶¨'), ('Î´Ö¸¶¨'), ('Î´Ö¸¶¨') ) ;
#85 = CALENDAR_DATE ( 2019, 28, 10 ) ;
#86 = ORIENTED_EDGE ( 'NONE', *, *, #398, .T. ) ;
#87 = CC_DESIGN_DATE_AND_TIME_ASSIGNMENT ( #286, #216, ( #362 ) ) ;
#88 = AXIS2_PLACEMENT_3D ( 'NONE', #25, #161, #255 ) ;
#89 =( LENGTH_UNIT ( ) NAMED_UNIT ( * ) SI_UNIT ( .MILLI., .METRE. ) );
#90 = EDGE_LOOP ( 'NONE', ( #279, #343, #359, #201 ) ) ;
#91 =( NAMED_UNIT ( * ) PLANE_ANGLE_UNIT ( ) SI_UNIT ( $, .RADIAN. ) );
#92 = APPROVAL_DATE_TIME ( #60, #310 ) ;
#93 = PERSON_AND_ORGANIZATION_ROLE ( 'creator' ) ;
#94 = AXIS2_PLACEMENT_3D ( 'NONE', #259, #131, #101 ) ;
#95 = APPLICATION_PROTOCOL_DEFINITION ( 'international standard', 'config_control_design', 1994, #117 ) ;
#96 = PRODUCT_DEFINITION_SHAPE ( 'NONE', 'NONE',  #265 ) ;
#97 = DIRECTION ( 'NONE',  ( 1.000000000000000000, 0.0000000000000000000, 0.0000000000000000000 ) ) ;
#98 = DIRECTION ( 'NONE',  ( 0.0000000000000000000, 0.0000000000000000000, 1.000000000000000000 ) ) ;
#99 = VERTEX_POINT ( 'NONE', #128 ) ;
#100 = AXIS2_PLACEMENT_3D ( 'NONE', #20, #155, #376 ) ;
#101 = DIRECTION ( 'NONE',  ( 0.0000000000000000000, 0.0000000000000000000, 1.000000000000000000 ) ) ;
#102 = ORIENTED_EDGE ( 'NONE', *, *, #398, .F. ) ;
#103 = ORIENTED_EDGE ( 'NONE', *, *, #116, .T. ) ;
#104 = EDGE_CURVE ( 'NONE', #15, #230, #342, .T. ) ;
#105 = APPROVAL_PERSON_ORGANIZATION ( #6, #124, #118 ) ;
#106 = FACE_BOUND ( 'NONE', #272, .T. ) ;
#107 = AXIS2_PLACEMENT_3D ( 'NONE', #211, #79, #374 ) ;
#108 = DIRECTION ( 'NONE',  ( -1.000000000000000000, -0.0000000000000000000, -0.0000000000000000000 ) ) ;
#109 = ORIENTED_EDGE ( 'NONE', *, *, #214, .F. ) ;
#110 = AXIS2_PLACEMENT_3D ( 'NONE', #221, #275, #152 ) ;
#111 = ADVANCED_FACE ( 'NONE', ( #313 ), #5, .F. ) ;
#112 = PLANE ( 'NONE',  #407 ) ;
#113 = CARTESIAN_POINT ( 'NONE',  ( -2.273684210526313100, 0.0000000000000000000, 0.0000000000000000000 ) ) ;
#114 = FACE_OUTER_BOUND ( 'NONE', #58, .T. ) ;
#115 = ORIENTED_EDGE ( 'NONE', *, *, #380, .T. ) ;
#116 = EDGE_CURVE ( 'NONE', #333, #283, #294, .T. ) ;
#117 = APPLICATION_CONTEXT ( 'configuration controlled 3d designs of mechanical parts and assemblies' ) ;
#118 = APPROVAL_ROLE ( '' ) ;
#119 = EDGE_LOOP ( 'NONE', ( #224, #151, #235, #370 ) ) ;
#120 = CC_DESIGN_DATE_AND_TIME_ASSIGNMENT ( #268, #249, ( #265 ) ) ;
#121 = CARTESIAN_POINT ( 'NONE',  ( 74.59999999999999400, 0.0000000000000000000, 12.69999999999999900 ) ) ;
#122 = DIRECTION ( 'NONE',  ( -1.000000000000000000, -0.0000000000000000000, -0.0000000000000000000 ) ) ;
#123 = EDGE_LOOP ( 'NONE', ( #338, #335 ) ) ;
#124 = APPROVAL ( #271, 'Î´Ö¸¶¨' ) ;
#125 = PLANE ( 'NONE',  #189 ) ;
#126 = CARTESIAN_POINT ( 'NONE',  ( 77.80000000000001100, 0.0000000000000000000, 0.0000000000000000000 ) ) ;
#127 = CARTESIAN_POINT ( 'NONE',  ( -2.273684210526313100, 1.592040838891558900E-015, -12.99999999999999800 ) ) ;
#128 = CARTESIAN_POINT ( 'NONE',  ( 67.29999999999999700, 0.0000000000000000000, 13.00000000000000000 ) ) ;
#129 = CIRCLE ( 'NONE', #156, 8.000000000000000000 ) ;
#130 = ORIENTED_EDGE ( 'NONE', *, *, #51, .F. ) ;
#131 = DIRECTION ( 'NONE',  ( -1.000000000000000000, -0.0000000000000000000, -0.0000000000000000000 ) ) ;
#132 = AXIS2_PLACEMENT_3D ( 'NONE', #126, #351, #165 ) ;
#133 = CARTESIAN_POINT ( 'NONE',  ( 0.0000000000000000000, 0.0000000000000000000, 0.0000000000000000000 ) ) ;
#134 = EDGE_LOOP ( 'NONE', ( #31, #296, #257, #32 ) ) ;
#135 = UNCERTAINTY_MEASURE_WITH_UNIT (LENGTH_MEASURE( 1.000000000000000100E-005 ), #89, 'distance_accuracy_value', 'NONE');
#136 = DIRECTION ( 'NONE',  ( -0.0000000000000000000, 0.0000000000000000000, 1.000000000000000000 ) ) ;
#137 = CIRCLE ( 'NONE', #276, 13.00000000000000000 ) ;
#138 = FACE_OUTER_BOUND ( 'NONE', #177, .T. ) ;
#139 = ORIENTED_EDGE ( 'NONE', *, *, #187, .T. ) ;
#140 = VERTEX_POINT ( 'NONE', #37 ) ;
#141 = CARTESIAN_POINT ( 'NONE',  ( -2.273684210526313100, 0.0000000000000000000, 12.99999999999999800 ) ) ;
#142 = AXIS2_PLACEMENT_3D ( 'NONE', #113, #270, #212 ) ;
#143 = APPROVAL_PERSON_ORGANIZATION ( #254, #295, #314 ) ;
#144 = DIRECTION ( 'NONE',  ( 0.0000000000000000000, 0.0000000000000000000, 1.000000000000000000 ) ) ;
#145 = DIRECTION ( 'NONE',  ( 0.0000000000000000000, 0.0000000000000000000, 1.000000000000000000 ) ) ;
#146 = DIRECTION ( 'NONE',  ( 0.0000000000000000000, 0.0000000000000000000, 1.000000000000000000 ) ) ;
#147 = ORIENTED_EDGE ( 'NONE', *, *, #73, .T. ) ;
#148 = SHAPE_DEFINITION_REPRESENTATION ( #96, #157 ) ;
#149 = CIRCLE ( 'NONE', #17, 8.000000000000001800 ) ;
#150 = EDGE_CURVE ( 'NONE', #72, #44, #18, .T. ) ;
#151 = ORIENTED_EDGE ( 'NONE', *, *, #199, .T. ) ;
#152 = DIRECTION ( 'NONE',  ( 1.000000000000000000, 0.0000000000000000000, 0.0000000000000000000 ) ) ;
#153 = SECURITY_CLASSIFICATION_LEVEL ( 'unclassified' ) ;
#154 = CALENDAR_DATE ( 2019, 28, 10 ) ;
#155 = DIRECTION ( 'NONE',  ( -1.000000000000000000, -0.0000000000000000000, -0.0000000000000000000 ) ) ;
#156 = AXIS2_PLACEMENT_3D ( 'NONE', #23, #413, #56 ) ;
#157 = ADVANCED_BREP_SHAPE_REPRESENTATION ( 'WWL20-110ATS STEPÍ¼', ( #3, #110 ), #369 ) ;
#158 = DIRECTION ( 'NONE',  ( 0.0000000000000000000, 0.0000000000000000000, 1.000000000000000000 ) ) ;
#159 = ORIENTED_EDGE ( 'NONE', *, *, #357, .F. ) ;
#160 = EDGE_LOOP ( 'NONE', ( #225, #207 ) ) ;
#161 = DIRECTION ( 'NONE',  ( -1.000000000000000000, -0.0000000000000000000, -0.0000000000000000000 ) ) ;
#162 = EDGE_CURVE ( 'NONE', #412, #99, #10, .T. ) ;
#163 = CARTESIAN_POINT ( 'NONE',  ( -2.273684210526313100, 0.0000000000000000000, 12.69999999999999900 ) ) ;
#164 = FACE_OUTER_BOUND ( 'NONE', #210, .T. ) ;
#165 = DIRECTION ( 'NONE',  ( 0.0000000000000000000, 0.0000000000000000000, 1.000000000000000000 ) ) ;
#166 = ORIENTED_EDGE ( 'NONE', *, *, #214, .T. ) ;
#167 = DIRECTION ( 'NONE',  ( 0.0000000000000000000, 0.0000000000000000000, 1.000000000000000000 ) ) ;
#168 = CC_DESIGN_SECURITY_CLASSIFICATION ( #362, ( #285 ) ) ;
#169 = ORIENTED_EDGE ( 'NONE', *, *, #104, .T. ) ;
#170 = DIRECTION ( 'NONE',  ( -1.000000000000000000, -0.0000000000000000000, -0.0000000000000000000 ) ) ;
#171 = DATE_AND_TIME ( #85, #300 ) ;
#172 = AXIS2_PLACEMENT_3D ( 'NONE', #61, #280, #98 ) ;
#173 = DIRECTION ( 'NONE',  ( 0.0000000000000000000, 0.0000000000000000000, 1.000000000000000000 ) ) ;
#174 = CYLINDRICAL_SURFACE ( 'NONE', #36, 12.99999999999999800 ) ;
#175 = VECTOR ( 'NONE', #252, 1000.000000000000000 ) ;
#176 = CARTESIAN_POINT ( 'NONE',  ( 67.29999999999999700, 1.592040838891559300E-015, -13.00000000000000200 ) ) ;
#177 = EDGE_LOOP ( 'NONE', ( #263, #115 ) ) ;
#178 = ORIENTED_EDGE ( 'NONE', *, *, #411, .T. ) ;
#179 = DIRECTION ( 'NONE',  ( -1.000000000000000000, -0.0000000000000000000, -0.0000000000000000000 ) ) ;
#180 = ADVANCED_FACE ( 'NONE', ( #312 ), #301, .T. ) ;
#181 = ORIENTED_EDGE ( 'NONE', *, *, #234, .T. ) ;
#182 = AXIS2_PLACEMENT_3D ( 'NONE', #38, #33, #292 ) ;
#183 = CARTESIAN_POINT ( 'NONE',  ( 67.29999999999999700, 8.000000000000000000, 0.0000000000000000000 ) ) ;
#184 = ADVANCED_FACE ( 'NONE', ( #80, #2 ), #125, .F. ) ;
#185 = EDGE_CURVE ( 'NONE', #283, #333, #368, .T. ) ;
#186 = CARTESIAN_POINT ( 'NONE',  ( 73.80000000000001100, 0.0000000000000000000, 0.0000000000000000000 ) ) ;
#187 = EDGE_CURVE ( 'NONE', #230, #44, #215, .T. ) ;
#188 = CALENDAR_DATE ( 2019, 28, 10 ) ;
#189 = AXIS2_PLACEMENT_3D ( 'NONE', #414, #319, #24 ) ;
#190 = CIRCLE ( 'NONE', #41, 13.00000000000000000 ) ;
#191 = DIRECTION ( 'NONE',  ( -1.000000000000000000, -0.0000000000000000000, -0.0000000000000000000 ) ) ;
#192 = CARTESIAN_POINT ( 'NONE',  ( -2.273684210526313100, 0.0000000000000000000, 0.0000000000000000000 ) ) ;
#193 = PERSON_AND_ORGANIZATION ( #84, #317 ) ;
#194 = PERSON_AND_ORGANIZATION_ROLE ( 'design_owner' ) ;
#195 = CARTESIAN_POINT ( 'NONE',  ( 74.59999999999999400, 1.555301434917138400E-015, -12.69999999999999900 ) ) ;
#196 = DIRECTION ( 'NONE',  ( -1.000000000000000000, -0.0000000000000000000, -0.0000000000000000000 ) ) ;
#197 = CARTESIAN_POINT ( 'NONE',  ( 73.80000000000001100, 0.0000000000000000000, 12.19999999999999900 ) ) ;
#198 = CIRCLE ( 'NONE', #49, 12.19999999999999900 ) ;
#199 = EDGE_CURVE ( 'NONE', #140, #55, #200, .T. ) ;
#200 = LINE ( 'NONE', #127, #277 ) ;
#201 = ORIENTED_EDGE ( 'NONE', *, *, #336, .F. ) ;
#202 = LINE ( 'NONE', #399, #75 ) ;
#203 = CARTESIAN_POINT ( 'NONE',  ( 77.80000000000001100, 12.69999999999999900, 0.0000000000000000000 ) ) ;
#204 = ADVANCED_FACE ( 'NONE', ( #341 ), #174, .T. ) ;
#205 = CLOSED_SHELL ( 'NONE', ( #180, #74, #204, #393, #298, #332, #361, #236, #184, #290, #293, #364, #111 ) ) ;
#206 = AXIS2_PLACEMENT_3D ( 'NONE', #78, #328, #237 ) ;
#207 = ORIENTED_EDGE ( 'NONE', *, *, #51, .T. ) ;
#208 = DIRECTION ( 'NONE',  ( -1.000000000000000000, -0.0000000000000000000, -0.0000000000000000000 ) ) ;
#209 = APPROVAL_DATE_TIME ( #220, #124 ) ;
#210 = EDGE_LOOP ( 'NONE', ( #289, #166, #178, #396 ) ) ;
#211 = CARTESIAN_POINT ( 'NONE',  ( 0.0000000000000000000, 0.0000000000000000000, 0.0000000000000000000 ) ) ;
#212 = DIRECTION ( 'NONE',  ( 0.0000000000000000000, 0.0000000000000000000, 1.000000000000000000 ) ) ;
#213 = CIRCLE ( 'NONE', #390, 12.99999999999999800 ) ;
#214 = EDGE_CURVE ( 'NONE', #230, #15, #129, .T. ) ;
#215 = LINE ( 'NONE', #253, #389 ) ;
#216 = DATE_TIME_ROLE ( 'classification_date' ) ;
#217 = APPROVAL_STATUS ( 'not_yet_approved' ) ;
#218 = EDGE_CURVE ( 'NONE', #412, #140, #222, .T. ) ;
#219 = DIRECTION ( 'NONE',  ( -1.000000000000000000, -0.0000000000000000000, -0.0000000000000000000 ) ) ;
#220 = DATE_AND_TIME ( #188, #226 ) ;
#221 = CARTESIAN_POINT ( 'NONE',  ( 0.0000000000000000000, 0.0000000000000000000, 0.0000000000000000000 ) ) ;
#222 = CIRCLE ( 'NONE', #88, 12.99999999999999800 ) ;
#223 = AXIS2_PLACEMENT_3D ( 'NONE', #410, #409, #167 ) ;
#224 = ORIENTED_EDGE ( 'NONE', *, *, #218, .T. ) ;
#225 = ORIENTED_EDGE ( 'NONE', *, *, #394, .T. ) ;
#226 = LOCAL_TIME ( 15, 22, 4.000000000000000000, #346 ) ;
#227 = DIRECTION ( 'NONE',  ( -1.000000000000000000, -0.0000000000000000000, -0.0000000000000000000 ) ) ;
#228 = DIRECTION ( 'NONE',  ( -1.000000000000000000, -0.0000000000000000000, -0.0000000000000000000 ) ) ;
#229 = CARTESIAN_POINT ( 'NONE',  ( 0.0000000000000000000, 0.0000000000000000000, 8.000000000000001800 ) ) ;
#230 = VERTEX_POINT ( 'NONE', #350 ) ;
#231 = LOCAL_TIME ( 15, 22, 4.000000000000000000, #377 ) ;
#232 = VECTOR ( 'NONE', #383, 1000.000000000000000 ) ;
#233 = ORIENTED_EDGE ( 'NONE', *, *, #321, .T. ) ;
#234 = EDGE_CURVE ( 'NONE', #283, #365, #358, .T. ) ;
#235 = ORIENTED_EDGE ( 'NONE', *, *, #73, .F. ) ;
#236 = ADVANCED_FACE ( 'NONE', ( #28 ), #306, .T. ) ;
#237 = DIRECTION ( 'NONE',  ( 0.0000000000000000000, 0.0000000000000000000, 1.000000000000000000 ) ) ;
#238 = PERSON_AND_ORGANIZATION ( #84, #317 ) ;
#239 = DIRECTION ( 'NONE',  ( 1.000000000000000000, 0.0000000000000000000, 0.0000000000000000000 ) ) ;
#240 = EDGE_LOOP ( 'NONE', ( #147, #233 ) ) ;
#241 = ORIENTED_EDGE ( 'NONE', *, *, #185, .F. ) ;
#242 = DIRECTION ( 'NONE',  ( -1.000000000000000000, -0.0000000000000000000, -0.0000000000000000000 ) ) ;
#243 = PRODUCT_RELATED_PRODUCT_CATEGORY ( 'detail', '', ( #264 ) ) ;
#244 = LINE ( 'NONE', #53, #175 ) ;
#245 = EDGE_LOOP ( 'NONE', ( #372, #71 ) ) ;
#246 = DIRECTION ( 'NONE',  ( -1.000000000000000000, -0.0000000000000000000, -0.0000000000000000000 ) ) ;
#247 = CARTESIAN_POINT ( 'NONE',  ( 0.0000000000000000000, 0.0000000000000000000, 0.0000000000000000000 ) ) ;
#248 = PERSON_AND_ORGANIZATION ( #84, #317 ) ;
#249 = DATE_TIME_ROLE ( 'creation_date' ) ;
#250 = CARTESIAN_POINT ( 'NONE',  ( -2.273684210526313100, 0.0000000000000000000, 0.0000000000000000000 ) ) ;
#251 = APPROVAL_ROLE ( '' ) ;
#252 = DIRECTION ( 'NONE',  ( -1.000000000000000000, -0.0000000000000000000, -0.0000000000000000000 ) ) ;
#253 = CARTESIAN_POINT ( 'NONE',  ( -2.273684210526313100, 9.797174393178825700E-016, -8.000000000000000000 ) ) ;
#254 = PERSON_AND_ORGANIZATION ( #84, #317 ) ;
#255 = DIRECTION ( 'NONE',  ( 0.0000000000000000000, 0.0000000000000000000, 1.000000000000000000 ) ) ;
#256 = CC_DESIGN_PERSON_AND_ORGANIZATION_ASSIGNMENT ( #77, #379, ( #285 ) ) ;
#257 = ORIENTED_EDGE ( 'NONE', *, *, #162, .T. ) ;
#258 = AXIS2_PLACEMENT_3D ( 'NONE', #133, #179, #145 ) ;
#259 = CARTESIAN_POINT ( 'NONE',  ( -2.273684210526313100, 0.0000000000000000000, 0.0000000000000000000 ) ) ;
#260 = EDGE_LOOP ( 'NONE', ( #66, #266, #284, #130 ) ) ;
#261 = EDGE_CURVE ( 'NONE', #401, #355, #21, .T. ) ;
#262 = FACE_OUTER_BOUND ( 'NONE', #90, .T. ) ;
#263 = ORIENTED_EDGE ( 'NONE', *, *, #150, .T. ) ;
#264 = PRODUCT ( 'WWL20-110ATS STEPÍ¼', 'WWL20-110ATS STEPÍ¼', '', ( #54 ) ) ;
#265 = PRODUCT_DEFINITION ( 'Î´Öª', '', #285, #403 ) ;
#266 = ORIENTED_EDGE ( 'NONE', *, *, #81, .T. ) ;
#267 = CARTESIAN_POINT ( 'NONE',  ( -2.273684210526313100, 0.0000000000000000000, 0.0000000000000000000 ) ) ;
#268 = DATE_AND_TIME ( #12, #309 ) ;
#269 = FACE_OUTER_BOUND ( 'NONE', #302, .T. ) ;
#270 = DIRECTION ( 'NONE',  ( -1.000000000000000000, -0.0000000000000000000, -0.0000000000000000000 ) ) ;
#271 = APPROVAL_STATUS ( 'not_yet_approved' ) ;
#272 = EDGE_LOOP ( 'NONE', ( #39, #109 ) ) ;
#273 = CARTESIAN_POINT ( 'NONE',  ( -2.273684210526313100, 0.0000000000000000000, 8.000000000000000000 ) ) ;
#274 = CARTESIAN_POINT ( 'NONE',  ( 67.29999999999999700, 0.0000000000000000000, 8.000000000000000000 ) ) ;
#275 = DIRECTION ( 'NONE',  ( 0.0000000000000000000, 0.0000000000000000000, 1.000000000000000000 ) ) ;
#276 = AXIS2_PLACEMENT_3D ( 'NONE', #16, #208, #371 ) ;
#277 = VECTOR ( 'NONE', #385, 1000.000000000000000 ) ;
#278 = VERTEX_POINT ( 'NONE', #197 ) ;
#279 = ORIENTED_EDGE ( 'NONE', *, *, #69, .T. ) ;
#280 = DIRECTION ( 'NONE',  ( -1.000000000000000000, -0.0000000000000000000, -0.0000000000000000000 ) ) ;
#281 = CARTESIAN_POINT ( 'NONE',  ( 77.80000000000001100, 0.0000000000000000000, 12.69999999999999900 ) ) ;
#282 = DIRECTION ( 'NONE',  ( 0.0000000000000000000, 0.0000000000000000000, 1.000000000000000000 ) ) ;
#283 = VERTEX_POINT ( 'NONE', #281 ) ;
#284 = ORIENTED_EDGE ( 'NONE', *, *, #336, .T. ) ;
#285 = PRODUCT_DEFINITION_FORMATION_WITH_SPECIFIED_SOURCE ( 'ÈÎºÎ', '', #264, .NOT_KNOWN. ) ;
#286 = DATE_AND_TIME ( #154, #305 ) ;
#287 = VECTOR ( 'NONE', #9, 1000.000000000000000 ) ;
#288 = CARTESIAN_POINT ( 'NONE',  ( 74.59999999999999400, 0.0000000000000000000, 0.0000000000000000000 ) ) ;
#289 = ORIENTED_EDGE ( 'NONE', *, *, #187, .F. ) ;
#290 = ADVANCED_FACE ( 'NONE', ( #46 ), #353, .T. ) ;
#291 = ORIENTED_EDGE ( 'NONE', *, *, #116, .F. ) ;
#292 = DIRECTION ( 'NONE',  ( 0.0000000000000000000, 0.0000000000000000000, 1.000000000000000000 ) ) ;
#293 = ADVANCED_FACE ( 'NONE', ( #68, #114 ), #381, .F. ) ;
#294 = CIRCLE ( 'NONE', #182, 12.69999999999999900 ) ;
#295 = APPROVAL ( #19, 'Î´Ö¸¶¨' ) ;
#296 = ORIENTED_EDGE ( 'NONE', *, *, #315, .T. ) ;
#297 = DIRECTION ( 'NONE',  ( -1.000000000000000000, 0.0000000000000000000, -0.0000000000000000000 ) ) ;
#298 = ADVANCED_FACE ( 'NONE', ( #138 ), #337, .F. ) ;
#299 = CARTESIAN_POINT ( 'NONE',  ( 74.59999999999999400, 0.0000000000000000000, 0.0000000000000000000 ) ) ;
#300 = LOCAL_TIME ( 15, 22, 4.000000000000000000, #406 ) ;
#301 = CYLINDRICAL_SURFACE ( 'NONE', #347, 12.69999999999999900 ) ;
#302 = EDGE_LOOP ( 'NONE', ( #43, #103, #181, #102 ) ) ;
#303 = AXIS2_PLACEMENT_3D ( 'NONE', #65, #97, #316 ) ;
#304 = VERTEX_POINT ( 'NONE', #195 ) ;
#305 = LOCAL_TIME ( 15, 22, 4.000000000000000000, #408 ) ;
#306 = CYLINDRICAL_SURFACE ( 'NONE', #172, 12.99999999999999800 ) ;
#307 = CARTESIAN_POINT ( 'NONE',  ( 73.80000000000001100, 0.0000000000000000000, 0.0000000000000000000 ) ) ;
#308 = DIRECTION ( 'NONE',  ( 0.0000000000000000000, 0.0000000000000000000, 1.000000000000000000 ) ) ;
#309 = LOCAL_TIME ( 15, 22, 4.000000000000000000, #322 ) ;
#310 = APPROVAL ( #217, 'Î´Ö¸¶¨' ) ;
#311 = PERSON_AND_ORGANIZATION_ROLE ( 'creator' ) ;
#312 = FACE_OUTER_BOUND ( 'NONE', #4, .T. ) ;
#313 = FACE_OUTER_BOUND ( 'NONE', #382, .T. ) ;
#314 = APPROVAL_ROLE ( '' ) ;
#315 = EDGE_CURVE ( 'NONE', #140, #412, #213, .T. ) ;
#316 = DIRECTION ( 'NONE',  ( 0.0000000000000000000, 0.0000000000000000000, -1.000000000000000000 ) ) ;
#317 = ORGANIZATION ( 'Î´Ö¸¶¨', 'Î´Ö¸¶¨', '' ) ;
#318 = FACE_OUTER_BOUND ( 'NONE', #240, .T. ) ;
#319 = DIRECTION ( 'NONE',  ( -1.000000000000000000, 0.0000000000000000000, -0.0000000000000000000 ) ) ;
#320 = EDGE_LOOP ( 'NONE', ( #169, #139, #47, #366 ) ) ;
#321 = EDGE_CURVE ( 'NONE', #55, #99, #137, .T. ) ;
#322 = COORDINATED_UNIVERSAL_TIME_OFFSET ( 8, 0, .AHEAD. ) ;
#323 = CC_DESIGN_APPROVAL ( #310, ( #285 ) ) ;
#324 = DIRECTION ( 'NONE',  ( 0.0000000000000000000, 0.0000000000000000000, 1.000000000000000000 ) ) ;
#325 = AXIS2_PLACEMENT_3D ( 'NONE', #299, #367, #144 ) ;
#326 = PERSON_AND_ORGANIZATION ( #84, #317 ) ;
#327 = CYLINDRICAL_SURFACE ( 'NONE', #142, 8.000000000000000000 ) ;
#328 = DIRECTION ( 'NONE',  ( -1.000000000000000000, -0.0000000000000000000, -0.0000000000000000000 ) ) ;
#329 = ORIENTED_EDGE ( 'NONE', *, *, #7, .T. ) ;
#330 = CARTESIAN_POINT ( 'NONE',  ( 74.59999999999999400, 0.0000000000000000000, 0.0000000000000000000 ) ) ;
#331 = APPROVAL_DATE_TIME ( #171, #295 ) ;
#332 = ADVANCED_FACE ( 'NONE', ( #164 ), #327, .T. ) ;
#333 = VERTEX_POINT ( 'NONE', #373 ) ;
#334 = DIRECTION ( 'NONE',  ( -1.000000000000000000, -0.0000000000000000000, -0.0000000000000000000 ) ) ;
#335 = ORIENTED_EDGE ( 'NONE', *, *, #81, .F. ) ;
#336 = EDGE_CURVE ( 'NONE', #34, #278, #202, .T. ) ;
#337 = PLANE ( 'NONE',  #107 ) ;
#338 = ORIENTED_EDGE ( 'NONE', *, *, #69, .F. ) ;
#339 = AXIS2_PLACEMENT_3D ( 'NONE', #203, #297, #136 ) ;
#340 = CARTESIAN_POINT ( 'NONE',  ( 74.59999999999999400, 1.494069094959770900E-015, -12.19999999999999900 ) ) ;
#341 = FACE_OUTER_BOUND ( 'NONE', #119, .T. ) ;
#342 = CIRCLE ( 'NONE', #206, 8.000000000000000000 ) ;
#343 = ORIENTED_EDGE ( 'NONE', *, *, #261, .T. ) ;
#344 = DIRECTION ( 'NONE',  ( -1.000000000000000000, -0.0000000000000000000, -0.0000000000000000000 ) ) ;
#345 = APPLICATION_CONTEXT ( 'configuration controlled 3d designs of mechanical parts and assemblies' ) ;
#346 = COORDINATED_UNIVERSAL_TIME_OFFSET ( 8, 0, .AHEAD. ) ;
#347 = AXIS2_PLACEMENT_3D ( 'NONE', #250, #42, #397 ) ;
#348 = CARTESIAN_POINT ( 'NONE',  ( -2.273684210526313100, 1.494069094959770900E-015, -12.19999999999999900 ) ) ;
#349 = DIRECTION ( 'NONE',  ( -1.000000000000000000, -0.0000000000000000000, -0.0000000000000000000 ) ) ;
#350 = CARTESIAN_POINT ( 'NONE',  ( 67.29999999999999700, 9.797174393178825700E-016, -8.000000000000000000 ) ) ;
#351 = DIRECTION ( 'NONE',  ( -1.000000000000000000, -0.0000000000000000000, -0.0000000000000000000 ) ) ;
#352 = CARTESIAN_POINT ( 'NONE',  ( 73.80000000000001100, 0.0000000000000000000, 0.0000000000000000000 ) ) ;
#353 = CYLINDRICAL_SURFACE ( 'NONE', #223, 12.19999999999999900 ) ;
#354 = CARTESIAN_POINT ( 'NONE',  ( 0.0000000000000000000, 9.797174393178827600E-016, -8.000000000000001800 ) ) ;
#355 = VERTEX_POINT ( 'NONE', #11 ) ;
#356 = AXIS2_PLACEMENT_3D ( 'NONE', #352, #67, #173 ) ;
#357 = EDGE_CURVE ( 'NONE', #365, #304, #400, .T. ) ;
#358 = LINE ( 'NONE', #163, #232 ) ;
#359 = ORIENTED_EDGE ( 'NONE', *, *, #394, .F. ) ;
#360 = DIRECTION ( 'NONE',  ( 0.0000000000000000000, 0.0000000000000000000, 1.000000000000000000 ) ) ;
#361 = ADVANCED_FACE ( 'NONE', ( #106, #318 ), #112, .F. ) ;
#362 = SECURITY_CLASSIFICATION ( '', '', #153 ) ;
#363 = AXIS2_PLACEMENT_3D ( 'NONE', #330, #108, #360 ) ;
#364 = ADVANCED_FACE ( 'NONE', ( #269 ), #14, .T. ) ;
#365 = VERTEX_POINT ( 'NONE', #121 ) ;
#366 = ORIENTED_EDGE ( 'NONE', *, *, #411, .F. ) ;
#367 = DIRECTION ( 'NONE',  ( -1.000000000000000000, -0.0000000000000000000, -0.0000000000000000000 ) ) ;
#368 = CIRCLE ( 'NONE', #132, 12.69999999999999900 ) ;
#369 =( GEOMETRIC_REPRESENTATION_CONTEXT ( 3 ) GLOBAL_UNCERTAINTY_ASSIGNED_CONTEXT ( ( #135 ) ) GLOBAL_UNIT_ASSIGNED_CONTEXT ( ( #89, #91, #378 ) ) REPRESENTATION_CONTEXT ( 'NONE', 'WORKASPACE' ) );
#370 = ORIENTED_EDGE ( 'NONE', *, *, #162, .F. ) ;
#371 = DIRECTION ( 'NONE',  ( 0.0000000000000000000, 0.0000000000000000000, 1.000000000000000000 ) ) ;
#372 = ORIENTED_EDGE ( 'NONE', *, *, #218, .F. ) ;
#373 = CARTESIAN_POINT ( 'NONE',  ( 77.80000000000001100, 1.555301434917138400E-015, -12.69999999999999900 ) ) ;
#374 = DIRECTION ( 'NONE',  ( 0.0000000000000000000, 0.0000000000000000000, -1.000000000000000000 ) ) ;
#375 = DIRECTION ( 'NONE',  ( 0.0000000000000000000, 0.0000000000000000000, 1.000000000000000000 ) ) ;
#376 = DIRECTION ( 'NONE',  ( 0.0000000000000000000, 0.0000000000000000000, 1.000000000000000000 ) ) ;
#377 = COORDINATED_UNIVERSAL_TIME_OFFSET ( 8, 0, .AHEAD. ) ;
#378 =( NAMED_UNIT ( * ) SI_UNIT ( $, .STERADIAN. ) SOLID_ANGLE_UNIT ( ) );
#379 = PERSON_AND_ORGANIZATION_ROLE ( 'design_supplier' ) ;
#380 = EDGE_CURVE ( 'NONE', #44, #72, #149, .T. ) ;
#381 = PLANE ( 'NONE',  #303 ) ;
#382 = EDGE_LOOP ( 'NONE', ( #241, #291 ) ) ;
#383 = DIRECTION ( 'NONE',  ( -1.000000000000000000, -0.0000000000000000000, -0.0000000000000000000 ) ) ;
#384 = CC_DESIGN_APPROVAL ( #124, ( #362 ) ) ;
#385 = DIRECTION ( 'NONE',  ( -1.000000000000000000, -0.0000000000000000000, -0.0000000000000000000 ) ) ;
#386 = CARTESIAN_POINT ( 'NONE',  ( 67.29999999999999700, 0.0000000000000000000, 0.0000000000000000000 ) ) ;
#387 = CC_DESIGN_APPROVAL ( #295, ( #265 ) ) ;
#388 = ORIENTED_EDGE ( 'NONE', *, *, #357, .T. ) ;
#389 = VECTOR ( 'NONE', #349, 1000.000000000000000 ) ;
#390 = AXIS2_PLACEMENT_3D ( 'NONE', #186, #246, #45 ) ;
#391 = CALENDAR_DATE ( 2019, 28, 10 ) ;
#392 = ORIENTED_EDGE ( 'NONE', *, *, #185, .T. ) ;
#393 = ADVANCED_FACE ( 'NONE', ( #62 ), #1, .T. ) ;
#394 = EDGE_CURVE ( 'NONE', #278, #355, #198, .T. ) ;
#395 = CYLINDRICAL_SURFACE ( 'NONE', #94, 12.19999999999999900 ) ;
#396 = ORIENTED_EDGE ( 'NONE', *, *, #380, .F. ) ;
#397 = DIRECTION ( 'NONE',  ( 0.0000000000000000000, 0.0000000000000000000, 1.000000000000000000 ) ) ;
#398 = EDGE_CURVE ( 'NONE', #304, #365, #27, .T. ) ;
#399 = CARTESIAN_POINT ( 'NONE',  ( -2.273684210526313100, 0.0000000000000000000, 12.19999999999999900 ) ) ;
#400 = CIRCLE ( 'NONE', #325, 12.69999999999999900 ) ;
#401 = VERTEX_POINT ( 'NONE', #340 ) ;
#402 = PERSON_AND_ORGANIZATION_ROLE ( 'classification_officer' ) ;
#403 = DESIGN_CONTEXT ( 'detailed design', #117, 'design' ) ;
#404 = AXIS2_PLACEMENT_3D ( 'NONE', #267, #334, #146 ) ;
#405 = CARTESIAN_POINT ( 'NONE',  ( 73.80000000000001100, 0.0000000000000000000, 12.99999999999999800 ) ) ;
#406 = COORDINATED_UNIVERSAL_TIME_OFFSET ( 8, 0, .AHEAD. ) ;
#407 = AXIS2_PLACEMENT_3D ( 'NONE', #183, #239, #83 ) ;
#408 = COORDINATED_UNIVERSAL_TIME_OFFSET ( 8, 0, .AHEAD. ) ;
#409 = DIRECTION ( 'NONE',  ( -1.000000000000000000, -0.0000000000000000000, -0.0000000000000000000 ) ) ;
#410 = CARTESIAN_POINT ( 'NONE',  ( -2.273684210526313100, 0.0000000000000000000, 0.0000000000000000000 ) ) ;
#411 = EDGE_CURVE ( 'NONE', #15, #72, #8, .T. ) ;
#412 = VERTEX_POINT ( 'NONE', #405 ) ;
#413 = DIRECTION ( 'NONE',  ( -1.000000000000000000, -0.0000000000000000000, -0.0000000000000000000 ) ) ;
#414 = CARTESIAN_POINT ( 'NONE',  ( 73.80000000000001100, 12.99999999999999800, 0.0000000000000000000 ) ) ;
#415 = DIRECTION ( 'NONE',  ( 0.0000000000000000000, 0.0000000000000000000, 1.000000000000000000 ) ) ;
ENDSEC;
END-ISO-10303-21;
