ISO-10303-21;
HEADER;
FILE_DESCRIPTION (( 'STEP AP203' ),
    '1' );
FILE_NAME ('WWL20-150AT STEPÍ¼.STEP',
    '2019-10-28T07:29:04',
    ( '' ),
    ( '' ),
    'SwSTEP 2.0',
    'SolidWorks 2014',
    '' );
FILE_SCHEMA (( 'CONFIG_CONTROL_DESIGN' ));
ENDSEC;

DATA;
#1 = EDGE_LOOP ( 'NONE', ( #73, #206 ) ) ;
#2 = DIRECTION ( 'NONE',  ( -1.000000000000000000, -0.0000000000000000000, -0.0000000000000000000 ) ) ;
#3 = CALENDAR_DATE ( 2019, 28, 10 ) ;
#4 = AXIS2_PLACEMENT_3D ( 'NONE', #313, #155, #316 ) ;
#5 = FACE_OUTER_BOUND ( 'NONE', #337, .T. ) ;
#6 = ORIENTED_EDGE ( 'NONE', *, *, #392, .F. ) ;
#7 = CARTESIAN_POINT ( 'NONE',  ( 103.3999999999999900, 0.0000000000000000000, 0.0000000000000000000 ) ) ;
#8 = EDGE_CURVE ( 'NONE', #395, #296, #256, .T. ) ;
#9 = CARTESIAN_POINT ( 'NONE',  ( 96.09999999999999400, 0.0000000000000000000, 0.0000000000000000000 ) ) ;
#10 = AXIS2_PLACEMENT_3D ( 'NONE', #353, #165, #207 ) ;
#11 = VERTEX_POINT ( 'NONE', #156 ) ;
#12 = CC_DESIGN_APPROVAL ( #90, ( #112 ) ) ;
#13 = DIRECTION ( 'NONE',  ( 0.0000000000000000000, 0.0000000000000000000, 1.000000000000000000 ) ) ;
#14 = CARTESIAN_POINT ( 'NONE',  ( 102.5999999999999900, 0.0000000000000000000, 0.0000000000000000000 ) ) ;
#15 = CIRCLE ( 'NONE', #295, 13.00000000000000000 ) ;
#16 = EDGE_CURVE ( 'NONE', #291, #296, #108, .T. ) ;
#17 = VECTOR ( 'NONE', #286, 1000.000000000000000 ) ;
#18 = LINE ( 'NONE', #196, #17 ) ;
#19 = ORIENTED_EDGE ( 'NONE', *, *, #29, .T. ) ;
#20 = PLANE ( 'NONE',  #34 ) ;
#21 = DIRECTION ( 'NONE',  ( -1.000000000000000000, -0.0000000000000000000, -0.0000000000000000000 ) ) ;
#22 = VECTOR ( 'NONE', #276, 1000.000000000000000 ) ;
#23 = EDGE_CURVE ( 'NONE', #395, #57, #85, .T. ) ;
#24 = CIRCLE ( 'NONE', #4, 12.69999999999999900 ) ;
#25 = DIRECTION ( 'NONE',  ( 0.0000000000000000000, 0.0000000000000000000, -1.000000000000000000 ) ) ;
#26 = APPLICATION_PROTOCOL_DEFINITION ( 'international standard', 'config_control_design', 1994, #174 ) ;
#27 = VECTOR ( 'NONE', #363, 1000.000000000000000 ) ;
#28 = VERTEX_POINT ( 'NONE', #117 ) ;
#29 = EDGE_CURVE ( 'NONE', #248, #154, #44, .T. ) ;
#30 = CARTESIAN_POINT ( 'NONE',  ( -2.619469026548670400, 0.0000000000000000000, 8.000000000000000000 ) ) ;
#31 = CARTESIAN_POINT ( 'NONE',  ( 96.09999999999999400, 0.0000000000000000000, 0.0000000000000000000 ) ) ;
#32 = VECTOR ( 'NONE', #122, 1000.000000000000000 ) ;
#33 = DIRECTION ( 'NONE',  ( 0.0000000000000000000, 0.0000000000000000000, 1.000000000000000000 ) ) ;
#34 = AXIS2_PLACEMENT_3D ( 'NONE', #266, #166, #53 ) ;
#35 = ORIENTED_EDGE ( 'NONE', *, *, #121, .F. ) ;
#36 = CARTESIAN_POINT ( 'NONE',  ( 106.5999999999999900, 0.0000000000000000000, 12.69999999999999900 ) ) ;
#37 = CC_DESIGN_PERSON_AND_ORGANIZATION_ASSIGNMENT ( #63, #381, ( #112 ) ) ;
#38 = ORIENTED_EDGE ( 'NONE', *, *, #8, .T. ) ;
#39 = PRODUCT_DEFINITION_SHAPE ( 'NONE', 'NONE',  #197 ) ;
#40 = ORIENTED_EDGE ( 'NONE', *, *, #173, .T. ) ;
#41 = AXIS2_PLACEMENT_3D ( 'NONE', #376, #76, #312 ) ;
#42 = CIRCLE ( 'NONE', #83, 13.00000000000000000 ) ;
#43 = CARTESIAN_POINT ( 'NONE',  ( 0.0000000000000000000, 9.797174393178825700E-016, -8.000000000000000000 ) ) ;
#44 = CIRCLE ( 'NONE', #187, 8.000000000000000000 ) ;
#45 = EDGE_LOOP ( 'NONE', ( #116, #214, #258, #74 ) ) ;
#46 = PRODUCT_RELATED_PRODUCT_CATEGORY ( 'detail', '', ( #375 ) ) ;
#47 = COORDINATED_UNIVERSAL_TIME_OFFSET ( 8, 0, .AHEAD. ) ;
#48 = DATE_TIME_ROLE ( 'creation_date' ) ;
#49 = CIRCLE ( 'NONE', #355, 8.000000000000000000 ) ;
#50 = AXIS2_PLACEMENT_3D ( 'NONE', #365, #183, #62 ) ;
#51 = EDGE_CURVE ( 'NONE', #28, #354, #24, .T. ) ;
#52 = ORIENTED_EDGE ( 'NONE', *, *, #298, .T. ) ;
#53 = DIRECTION ( 'NONE',  ( 0.0000000000000000000, 0.0000000000000000000, -1.000000000000000000 ) ) ;
#54 = VERTEX_POINT ( 'NONE', #43 ) ;
#55 = APPROVAL ( #130, 'Î´Ö¸¶¨' ) ;
#56 = DIRECTION ( 'NONE',  ( 0.0000000000000000000, 0.0000000000000000000, 1.000000000000000000 ) ) ;
#57 = VERTEX_POINT ( 'NONE', #79 ) ;
#58 = CARTESIAN_POINT ( 'NONE',  ( 96.09999999999999400, 1.592040838891559100E-015, -13.00000000000000000 ) ) ;
#59 = CC_DESIGN_PERSON_AND_ORGANIZATION_ASSIGNMENT ( #152, #299, ( #257 ) ) ;
#60 = APPROVAL_ROLE ( '' ) ;
#61 = PLANE ( 'NONE',  #110 ) ;
#62 = DIRECTION ( 'NONE',  ( -0.0000000000000000000, 0.0000000000000000000, 1.000000000000000000 ) ) ;
#63 = PERSON_AND_ORGANIZATION ( #115, #300 ) ;
#64 = DIRECTION ( 'NONE',  ( 0.0000000000000000000, 0.0000000000000000000, 1.000000000000000000 ) ) ;
#65 = CYLINDRICAL_SURFACE ( 'NONE', #288, 8.000000000000000000 ) ;
#66 = AXIS2_PLACEMENT_3D ( 'NONE', #339, #144, #68 ) ;
#67 = VECTOR ( 'NONE', #217, 1000.000000000000000 ) ;
#68 = DIRECTION ( 'NONE',  ( 0.0000000000000000000, 0.0000000000000000000, 1.000000000000000000 ) ) ;
#69 = EDGE_LOOP ( 'NONE', ( #143, #380 ) ) ;
#70 = EDGE_CURVE ( 'NONE', #131, #198, #251, .T. ) ;
#71 = CARTESIAN_POINT ( 'NONE',  ( 0.0000000000000000000, 0.0000000000000000000, 8.000000000000000000 ) ) ;
#72 = LOCAL_TIME ( 15, 29, 4.000000000000000000, #411 ) ;
#73 = ORIENTED_EDGE ( 'NONE', *, *, #341, .F. ) ;
#74 = ORIENTED_EDGE ( 'NONE', *, *, #317, .F. ) ;
#75 = AXIS2_PLACEMENT_3D ( 'NONE', #142, #250, #145 ) ;
#76 = DIRECTION ( 'NONE',  ( -1.000000000000000000, -0.0000000000000000000, -0.0000000000000000000 ) ) ;
#77 = EDGE_CURVE ( 'NONE', #248, #54, #314, .T. ) ;
#78 = CARTESIAN_POINT ( 'NONE',  ( -2.619469026548670400, 9.797174393178825700E-016, -8.000000000000000000 ) ) ;
#79 = CARTESIAN_POINT ( 'NONE',  ( 103.3999999999999900, 0.0000000000000000000, 12.19999999999999900 ) ) ;
#80 = AXIS2_PLACEMENT_3D ( 'NONE', #7, #344, #158 ) ;
#81 = PERSON_AND_ORGANIZATION ( #115, #300 ) ;
#82 = DIRECTION ( 'NONE',  ( -1.000000000000000000, -0.0000000000000000000, -0.0000000000000000000 ) ) ;
#83 = AXIS2_PLACEMENT_3D ( 'NONE', #93, #330, #132 ) ;
#84 = DIRECTION ( 'NONE',  ( -1.000000000000000000, -0.0000000000000000000, -0.0000000000000000000 ) ) ;
#85 = CIRCLE ( 'NONE', #80, 12.19999999999999900 ) ;
#86 = CARTESIAN_POINT ( 'NONE',  ( -2.619469026548670400, 0.0000000000000000000, 0.0000000000000000000 ) ) ;
#87 = CALENDAR_DATE ( 2019, 28, 10 ) ;
#88 = CIRCLE ( 'NONE', #75, 12.19999999999999900 ) ;
#89 = ORIENTED_EDGE ( 'NONE', *, *, #298, .F. ) ;
#90 = APPROVAL ( #172, 'Î´Ö¸¶¨' ) ;
#91 = APPLICATION_CONTEXT ( 'configuration controlled 3d designs of mechanical parts and assemblies' ) ;
#92 = CARTESIAN_POINT ( 'NONE',  ( 103.3999999999999900, 1.494069094959770900E-015, -12.19999999999999900 ) ) ;
#93 = CARTESIAN_POINT ( 'NONE',  ( 96.09999999999999400, 0.0000000000000000000, 0.0000000000000000000 ) ) ;
#94 = DIRECTION ( 'NONE',  ( 0.0000000000000000000, 0.0000000000000000000, 1.000000000000000000 ) ) ;
#95 = ADVANCED_FACE ( 'NONE', ( #255 ), #65, .T. ) ;
#96 = CARTESIAN_POINT ( 'NONE',  ( 106.5999999999999900, 12.69999999999999900, 0.0000000000000000000 ) ) ;
#97 = MANIFOLD_SOLID_BREP ( 'Ðý×ª1', #285 ) ;
#98 = PERSON_AND_ORGANIZATION ( #115, #300 ) ;
#99 = ADVANCED_FACE ( 'NONE', ( #160 ), #372, .T. ) ;
#100 =( GEOMETRIC_REPRESENTATION_CONTEXT ( 3 ) GLOBAL_UNCERTAINTY_ASSIGNED_CONTEXT ( ( #368 ) ) GLOBAL_UNIT_ASSIGNED_CONTEXT ( ( #222, #357, #413 ) ) REPRESENTATION_CONTEXT ( 'NONE', 'WORKASPACE' ) );
#101 = ORIENTED_EDGE ( 'NONE', *, *, #259, .T. ) ;
#102 = ORIENTED_EDGE ( 'NONE', *, *, #394, .T. ) ;
#103 = ORIENTED_EDGE ( 'NONE', *, *, #402, .F. ) ;
#104 = EDGE_CURVE ( 'NONE', #184, #11, #18, .T. ) ;
#105 = PLANE ( 'NONE',  #50 ) ;
#106 = CARTESIAN_POINT ( 'NONE',  ( 103.3999999999999900, 0.0000000000000000000, 12.69999999999999900 ) ) ;
#107 = COORDINATED_UNIVERSAL_TIME_OFFSET ( 8, 0, .AHEAD. ) ;
#108 = CIRCLE ( 'NONE', #41, 12.19999999999999900 ) ;
#109 = DIRECTION ( 'NONE',  ( -1.000000000000000000, -0.0000000000000000000, -0.0000000000000000000 ) ) ;
#110 = AXIS2_PLACEMENT_3D ( 'NONE', #96, #414, #182 ) ;
#111 = CARTESIAN_POINT ( 'NONE',  ( -2.619469026548670400, 0.0000000000000000000, 12.69999999999999900 ) ) ;
#112 = PRODUCT_DEFINITION_FORMATION_WITH_SPECIFIED_SOURCE ( 'ÈÎºÎ', '', #375, .NOT_KNOWN. ) ;
#113 = COORDINATED_UNIVERSAL_TIME_OFFSET ( 8, 0, .AHEAD. ) ;
#114 = FACE_OUTER_BOUND ( 'NONE', #140, .T. ) ;
#115 = PERSON ( 'Î´Ö¸¶¨', 'Î´Ö¸¶¨', 'Î´Ö¸¶¨', ('Î´Ö¸¶¨'), ('Î´Ö¸¶¨'), ('Î´Ö¸¶¨') ) ;
#116 = ORIENTED_EDGE ( 'NONE', *, *, #8, .F. ) ;
#117 = CARTESIAN_POINT ( 'NONE',  ( 103.3999999999999900, 1.555301434917138400E-015, -12.69999999999999900 ) ) ;
#118 = CC_DESIGN_PERSON_AND_ORGANIZATION_ASSIGNMENT ( #324, #203, ( #112 ) ) ;
#119 = APPROVAL_PERSON_ORGANIZATION ( #228, #199, #60 ) ;
#120 = LINE ( 'NONE', #111, #22 ) ;
#121 = EDGE_CURVE ( 'NONE', #184, #131, #306, .T. ) ;
#122 = DIRECTION ( 'NONE',  ( -1.000000000000000000, -0.0000000000000000000, -0.0000000000000000000 ) ) ;
#123 = CARTESIAN_POINT ( 'NONE',  ( -2.619469026548670400, 1.494069094959770900E-015, -12.19999999999999900 ) ) ;
#124 = DIRECTION ( 'NONE',  ( 0.0000000000000000000, 0.0000000000000000000, 1.000000000000000000 ) ) ;
#125 = APPROVAL_DATE_TIME ( #211, #199 ) ;
#126 = CC_DESIGN_PERSON_AND_ORGANIZATION_ASSIGNMENT ( #81, #231, ( #375 ) ) ;
#127 = DIRECTION ( 'NONE',  ( 0.0000000000000000000, 0.0000000000000000000, 1.000000000000000000 ) ) ;
#128 = ORIENTED_EDGE ( 'NONE', *, *, #252, .F. ) ;
#129 = CIRCLE ( 'NONE', #407, 13.00000000000000000 ) ;
#130 = APPROVAL_STATUS ( 'not_yet_approved' ) ;
#131 = VERTEX_POINT ( 'NONE', #322 ) ;
#132 = DIRECTION ( 'NONE',  ( 0.0000000000000000000, 0.0000000000000000000, 1.000000000000000000 ) ) ;
#133 = CALENDAR_DATE ( 2019, 28, 10 ) ;
#134 = PERSON_AND_ORGANIZATION ( #115, #300 ) ;
#135 = CARTESIAN_POINT ( 'NONE',  ( -2.619469026548670400, 0.0000000000000000000, 0.0000000000000000000 ) ) ;
#136 = FACE_OUTER_BOUND ( 'NONE', #393, .T. ) ;
#137 = ORIENTED_EDGE ( 'NONE', *, *, #315, .T. ) ;
#138 = DIRECTION ( 'NONE',  ( 0.0000000000000000000, 0.0000000000000000000, -1.000000000000000000 ) ) ;
#139 = CIRCLE ( 'NONE', #10, 8.000000000000000000 ) ;
#140 = EDGE_LOOP ( 'NONE', ( #246, #101 ) ) ;
#141 = DIRECTION ( 'NONE',  ( 0.0000000000000000000, 0.0000000000000000000, 1.000000000000000000 ) ) ;
#142 = CARTESIAN_POINT ( 'NONE',  ( 103.3999999999999900, 0.0000000000000000000, 0.0000000000000000000 ) ) ;
#143 = ORIENTED_EDGE ( 'NONE', *, *, #16, .T. ) ;
#144 = DIRECTION ( 'NONE',  ( -1.000000000000000000, -0.0000000000000000000, -0.0000000000000000000 ) ) ;
#145 = DIRECTION ( 'NONE',  ( 0.0000000000000000000, 0.0000000000000000000, 1.000000000000000000 ) ) ;
#146 = FACE_OUTER_BOUND ( 'NONE', #1, .T. ) ;
#147 = ORIENTED_EDGE ( 'NONE', *, *, #173, .F. ) ;
#148 = ORIENTED_EDGE ( 'NONE', *, *, #77, .T. ) ;
#149 = EDGE_LOOP ( 'NONE', ( #279, #235 ) ) ;
#150 = EDGE_CURVE ( 'NONE', #401, #28, #253, .T. ) ;
#151 = CARTESIAN_POINT ( 'NONE',  ( -2.619469026548670400, 1.592040838891559100E-015, -13.00000000000000000 ) ) ;
#152 = PERSON_AND_ORGANIZATION ( #115, #300 ) ;
#153 = LINE ( 'NONE', #264, #229 ) ;
#154 = VERTEX_POINT ( 'NONE', #194 ) ;
#155 = DIRECTION ( 'NONE',  ( -1.000000000000000000, -0.0000000000000000000, -0.0000000000000000000 ) ) ;
#156 = CARTESIAN_POINT ( 'NONE',  ( 96.09999999999999400, 0.0000000000000000000, 13.00000000000000000 ) ) ;
#157 = ORIENTED_EDGE ( 'NONE', *, *, #341, .T. ) ;
#158 = DIRECTION ( 'NONE',  ( 0.0000000000000000000, 0.0000000000000000000, 1.000000000000000000 ) ) ;
#159 = EDGE_CURVE ( 'NONE', #401, #340, #378, .T. ) ;
#160 = FACE_OUTER_BOUND ( 'NONE', #332, .T. ) ;
#161 = CARTESIAN_POINT ( 'NONE',  ( 106.5999999999999900, 0.0000000000000000000, 0.0000000000000000000 ) ) ;
#162 = DIRECTION ( 'NONE',  ( -1.000000000000000000, -0.0000000000000000000, -0.0000000000000000000 ) ) ;
#163 = ORIENTED_EDGE ( 'NONE', *, *, #415, .F. ) ;
#164 = CYLINDRICAL_SURFACE ( 'NONE', #338, 13.00000000000000000 ) ;
#165 = DIRECTION ( 'NONE',  ( -1.000000000000000000, -0.0000000000000000000, -0.0000000000000000000 ) ) ;
#166 = DIRECTION ( 'NONE',  ( 1.000000000000000000, 0.0000000000000000000, 0.0000000000000000000 ) ) ;
#167 = AXIS2_PLACEMENT_3D ( 'NONE', #290, #319, #124 ) ;
#168 = SECURITY_CLASSIFICATION_LEVEL ( 'unclassified' ) ;
#169 = ADVANCED_FACE ( 'NONE', ( #399 ), #219, .T. ) ;
#170 = EDGE_LOOP ( 'NONE', ( #103, #385 ) ) ;
#171 = ORIENTED_EDGE ( 'NONE', *, *, #104, .F. ) ;
#172 = APPROVAL_STATUS ( 'not_yet_approved' ) ;
#173 = EDGE_CURVE ( 'NONE', #354, #28, #318, .T. ) ;
#174 = APPLICATION_CONTEXT ( 'configuration controlled 3d designs of mechanical parts and assemblies' ) ;
#175 = CC_DESIGN_APPROVAL ( #199, ( #257 ) ) ;
#176 = CARTESIAN_POINT ( 'NONE',  ( 0.0000000000000000000, 0.0000000000000000000, 0.0000000000000000000 ) ) ;
#177 = ADVANCED_FACE ( 'NONE', ( #302 ), #238, .T. ) ;
#178 = DATE_AND_TIME ( #87, #351 ) ;
#179 = DIRECTION ( 'NONE',  ( -1.000000000000000000, -0.0000000000000000000, -0.0000000000000000000 ) ) ;
#180 = FACE_BOUND ( 'NONE', #170, .T. ) ;
#181 = ADVANCED_FACE ( 'NONE', ( #200, #188 ), #333, .F. ) ;
#182 = DIRECTION ( 'NONE',  ( -0.0000000000000000000, 0.0000000000000000000, 1.000000000000000000 ) ) ;
#183 = DIRECTION ( 'NONE',  ( -1.000000000000000000, 0.0000000000000000000, -0.0000000000000000000 ) ) ;
#184 = VERTEX_POINT ( 'NONE', #247 ) ;
#185 = CARTESIAN_POINT ( 'NONE',  ( 102.5999999999999900, 0.0000000000000000000, 12.19999999999999900 ) ) ;
#186 = CC_DESIGN_DATE_AND_TIME_ASSIGNMENT ( #293, #260, ( #257 ) ) ;
#187 = AXIS2_PLACEMENT_3D ( 'NONE', #9, #221, #284 ) ;
#188 = FACE_OUTER_BOUND ( 'NONE', #220, .T. ) ;
#189 = ORIENTED_EDGE ( 'NONE', *, *, #104, .T. ) ;
#190 = AXIS2_PLACEMENT_3D ( 'NONE', #342, #209, #33 ) ;
#191 = CARTESIAN_POINT ( 'NONE',  ( -2.619469026548670400, 0.0000000000000000000, 0.0000000000000000000 ) ) ;
#192 = DIRECTION ( 'NONE',  ( -1.000000000000000000, -0.0000000000000000000, -0.0000000000000000000 ) ) ;
#193 = CARTESIAN_POINT ( 'NONE',  ( 103.3999999999999900, 0.0000000000000000000, 0.0000000000000000000 ) ) ;
#194 = CARTESIAN_POINT ( 'NONE',  ( 96.09999999999999400, 0.0000000000000000000, 8.000000000000000000 ) ) ;
#195 = LOCAL_TIME ( 15, 29, 4.000000000000000000, #212 ) ;
#196 = CARTESIAN_POINT ( 'NONE',  ( -2.619469026548670400, 0.0000000000000000000, 13.00000000000000000 ) ) ;
#197 = PRODUCT_DEFINITION ( 'Î´Öª', '', #112, #241 ) ;
#198 = VERTEX_POINT ( 'NONE', #58 ) ;
#199 = APPROVAL ( #201, 'Î´Ö¸¶¨' ) ;
#200 = FACE_BOUND ( 'NONE', #307, .T. ) ;
#201 = APPROVAL_STATUS ( 'not_yet_approved' ) ;
#202 = ADVANCED_FACE ( 'NONE', ( #180, #213 ), #237, .F. ) ;
#203 = PERSON_AND_ORGANIZATION_ROLE ( 'design_supplier' ) ;
#204 = APPROVAL_PERSON_ORGANIZATION ( #287, #90, #269 ) ;
#205 = EDGE_LOOP ( 'NONE', ( #309, #148, #163, #128 ) ) ;
#206 = ORIENTED_EDGE ( 'NONE', *, *, #159, .F. ) ;
#207 = DIRECTION ( 'NONE',  ( 0.0000000000000000000, 0.0000000000000000000, 1.000000000000000000 ) ) ;
#208 = AXIS2_PLACEMENT_3D ( 'NONE', #367, #109, #305 ) ;
#209 = DIRECTION ( 'NONE',  ( -1.000000000000000000, -0.0000000000000000000, -0.0000000000000000000 ) ) ;
#210 = DIRECTION ( 'NONE',  ( -1.000000000000000000, -0.0000000000000000000, -0.0000000000000000000 ) ) ;
#211 = DATE_AND_TIME ( #133, #382 ) ;
#212 = COORDINATED_UNIVERSAL_TIME_OFFSET ( 8, 0, .AHEAD. ) ;
#213 = FACE_OUTER_BOUND ( 'NONE', #149, .T. ) ;
#214 = ORIENTED_EDGE ( 'NONE', *, *, #23, .T. ) ;
#215 = VECTOR ( 'NONE', #347, 1000.000000000000000 ) ;
#216 = ORIENTED_EDGE ( 'NONE', *, *, #77, .F. ) ;
#217 = DIRECTION ( 'NONE',  ( -1.000000000000000000, -0.0000000000000000000, -0.0000000000000000000 ) ) ;
#218 = CC_DESIGN_PERSON_AND_ORGANIZATION_ASSIGNMENT ( #134, #292, ( #197 ) ) ;
#219 = CYLINDRICAL_SURFACE ( 'NONE', #412, 12.69999999999999900 ) ;
#220 = EDGE_LOOP ( 'NONE', ( #40, #225 ) ) ;
#221 = DIRECTION ( 'NONE',  ( -1.000000000000000000, -0.0000000000000000000, -0.0000000000000000000 ) ) ;
#222 =( LENGTH_UNIT ( ) NAMED_UNIT ( * ) SI_UNIT ( .MILLI., .METRE. ) );
#223 = CARTESIAN_POINT ( 'NONE',  ( -2.619469026548670400, 0.0000000000000000000, 0.0000000000000000000 ) ) ;
#224 = DATE_AND_TIME ( #391, #72 ) ;
#225 = ORIENTED_EDGE ( 'NONE', *, *, #51, .T. ) ;
#226 = DIRECTION ( 'NONE',  ( 0.0000000000000000000, 0.0000000000000000000, 1.000000000000000000 ) ) ;
#227 = DIRECTION ( 'NONE',  ( 0.0000000000000000000, 0.0000000000000000000, 1.000000000000000000 ) ) ;
#228 = PERSON_AND_ORGANIZATION ( #115, #300 ) ;
#229 = VECTOR ( 'NONE', #233, 1000.000000000000000 ) ;
#230 = ORIENTED_EDGE ( 'NONE', *, *, #51, .F. ) ;
#231 = PERSON_AND_ORGANIZATION_ROLE ( 'design_owner' ) ;
#232 = ADVANCED_FACE ( 'NONE', ( #146 ), #61, .F. ) ;
#233 = DIRECTION ( 'NONE',  ( -1.000000000000000000, -0.0000000000000000000, -0.0000000000000000000 ) ) ;
#234 = ORIENTED_EDGE ( 'NONE', *, *, #150, .T. ) ;
#235 = ORIENTED_EDGE ( 'NONE', *, *, #311, .T. ) ;
#236 = LOCAL_TIME ( 15, 29, 4.000000000000000000, #107 ) ;
#237 = PLANE ( 'NONE',  #282 ) ;
#238 = CYLINDRICAL_SURFACE ( 'NONE', #167, 12.69999999999999900 ) ;
#239 = MECHANICAL_CONTEXT ( 'NONE', #91, 'mechanical' ) ;
#240 = VECTOR ( 'NONE', #410, 1000.000000000000000 ) ;
#241 = DESIGN_CONTEXT ( 'detailed design', #174, 'design' ) ;
#242 = DIRECTION ( 'NONE',  ( 1.000000000000000000, 0.0000000000000000000, 0.0000000000000000000 ) ) ;
#243 = ORIENTED_EDGE ( 'NONE', *, *, #121, .T. ) ;
#244 = FACE_BOUND ( 'NONE', #69, .T. ) ;
#245 = ADVANCED_FACE ( 'NONE', ( #370 ), #164, .T. ) ;
#246 = ORIENTED_EDGE ( 'NONE', *, *, #415, .T. ) ;
#247 = CARTESIAN_POINT ( 'NONE',  ( 102.5999999999999900, 0.0000000000000000000, 13.00000000000000000 ) ) ;
#248 = VERTEX_POINT ( 'NONE', #303 ) ;
#249 = DIRECTION ( 'NONE',  ( 0.0000000000000000000, 0.0000000000000000000, 1.000000000000000000 ) ) ;
#250 = DIRECTION ( 'NONE',  ( -1.000000000000000000, -0.0000000000000000000, -0.0000000000000000000 ) ) ;
#251 = LINE ( 'NONE', #151, #215 ) ;
#252 = EDGE_CURVE ( 'NONE', #154, #321, #335, .T. ) ;
#253 = LINE ( 'NONE', #261, #240 ) ;
#254 = CIRCLE ( 'NONE', #277, 8.000000000000000000 ) ;
#255 = FACE_OUTER_BOUND ( 'NONE', #205, .T. ) ;
#256 = LINE ( 'NONE', #123, #67 ) ;
#257 = SECURITY_CLASSIFICATION ( '', '', #168 ) ;
#258 = ORIENTED_EDGE ( 'NONE', *, *, #392, .T. ) ;
#259 = EDGE_CURVE ( 'NONE', #54, #321, #254, .T. ) ;
#260 = DATE_TIME_ROLE ( 'classification_date' ) ;
#261 = CARTESIAN_POINT ( 'NONE',  ( -2.619469026548670400, 1.555301434917138400E-015, -12.69999999999999900 ) ) ;
#262 = DIRECTION ( 'NONE',  ( -1.000000000000000000, -0.0000000000000000000, -0.0000000000000000000 ) ) ;
#263 = AXIS2_PLACEMENT_3D ( 'NONE', #193, #280, #403 ) ;
#264 = CARTESIAN_POINT ( 'NONE',  ( -2.619469026548670400, 0.0000000000000000000, 12.19999999999999900 ) ) ;
#265 = ADVANCED_FACE ( 'NONE', ( #326, #244 ), #105, .F. ) ;
#266 = CARTESIAN_POINT ( 'NONE',  ( 0.0000000000000000000, 0.0000000000000000000, 0.0000000000000000000 ) ) ;
#267 = CARTESIAN_POINT ( 'NONE',  ( 103.3999999999999900, 12.19999999999999900, 0.0000000000000000000 ) ) ;
#268 = EDGE_LOOP ( 'NONE', ( #345, #352, #137, #230 ) ) ;
#269 = APPROVAL_ROLE ( '' ) ;
#270 = CARTESIAN_POINT ( 'NONE',  ( 96.09999999999999400, 8.000000000000000000, 0.0000000000000000000 ) ) ;
#271 = AXIS2_PLACEMENT_3D ( 'NONE', #223, #84, #227 ) ;
#272 = DIRECTION ( 'NONE',  ( 1.000000000000000000, 0.0000000000000000000, 0.0000000000000000000 ) ) ;
#273 = ADVANCED_FACE ( 'NONE', ( #5 ), #374, .T. ) ;
#274 = EDGE_LOOP ( 'NONE', ( #157, #234, #147, #343 ) ) ;
#275 = CARTESIAN_POINT ( 'NONE',  ( -2.619469026548670400, 0.0000000000000000000, 0.0000000000000000000 ) ) ;
#276 = DIRECTION ( 'NONE',  ( -1.000000000000000000, -0.0000000000000000000, -0.0000000000000000000 ) ) ;
#277 = AXIS2_PLACEMENT_3D ( 'NONE', #336, #386, #141 ) ;
#278 = CC_DESIGN_SECURITY_CLASSIFICATION ( #257, ( #112 ) ) ;
#279 = ORIENTED_EDGE ( 'NONE', *, *, #398, .T. ) ;
#280 = DIRECTION ( 'NONE',  ( -1.000000000000000000, -0.0000000000000000000, -0.0000000000000000000 ) ) ;
#281 = SHAPE_DEFINITION_REPRESENTATION ( #39, #301 ) ;
#282 = AXIS2_PLACEMENT_3D ( 'NONE', #270, #272, #25 ) ;
#283 = ORIENTED_EDGE ( 'NONE', *, *, #398, .F. ) ;
#284 = DIRECTION ( 'NONE',  ( 0.0000000000000000000, 0.0000000000000000000, 1.000000000000000000 ) ) ;
#285 = CLOSED_SHELL ( 'NONE', ( #169, #273, #327, #95, #379, #99, #202, #245, #265, #361, #181, #177, #232 ) ) ;
#286 = DIRECTION ( 'NONE',  ( -1.000000000000000000, -0.0000000000000000000, -0.0000000000000000000 ) ) ;
#287 = PERSON_AND_ORGANIZATION ( #115, #300 ) ;
#288 = AXIS2_PLACEMENT_3D ( 'NONE', #191, #82, #226 ) ;
#289 = CIRCLE ( 'NONE', #371, 12.69999999999999900 ) ;
#290 = CARTESIAN_POINT ( 'NONE',  ( -2.619469026548670400, 0.0000000000000000000, 0.0000000000000000000 ) ) ;
#291 = VERTEX_POINT ( 'NONE', #185 ) ;
#292 = PERSON_AND_ORGANIZATION_ROLE ( 'creator' ) ;
#293 = DATE_AND_TIME ( #3, #236 ) ;
#294 = CYLINDRICAL_SURFACE ( 'NONE', #190, 13.00000000000000000 ) ;
#295 = AXIS2_PLACEMENT_3D ( 'NONE', #31, #210, #249 ) ;
#296 = VERTEX_POINT ( 'NONE', #387 ) ;
#297 = CARTESIAN_POINT ( 'NONE',  ( 106.5999999999999900, 1.555301434917138400E-015, -12.69999999999999900 ) ) ;
#298 = EDGE_CURVE ( 'NONE', #57, #395, #88, .T. ) ;
#299 = PERSON_AND_ORGANIZATION_ROLE ( 'classification_officer' ) ;
#300 = ORGANIZATION ( 'Î´Ö¸¶¨', 'Î´Ö¸¶¨', '' ) ;
#301 = ADVANCED_BREP_SHAPE_REPRESENTATION ( 'WWL20-150AT STEPÍ¼', ( #97, #304 ), #100 ) ;
#302 = FACE_OUTER_BOUND ( 'NONE', #268, .T. ) ;
#303 = CARTESIAN_POINT ( 'NONE',  ( 96.09999999999999400, 9.797174393178825700E-016, -8.000000000000000000 ) ) ;
#304 = AXIS2_PLACEMENT_3D ( 'NONE', #176, #13, #328 ) ;
#305 = DIRECTION ( 'NONE',  ( 0.0000000000000000000, 0.0000000000000000000, 1.000000000000000000 ) ) ;
#306 = CIRCLE ( 'NONE', #325, 13.00000000000000000 ) ;
#307 = EDGE_LOOP ( 'NONE', ( #89, #384 ) ) ;
#308 = CARTESIAN_POINT ( 'NONE',  ( 106.5999999999999900, 0.0000000000000000000, 0.0000000000000000000 ) ) ;
#309 = ORIENTED_EDGE ( 'NONE', *, *, #402, .T. ) ;
#310 = AXIS2_PLACEMENT_3D ( 'NONE', #267, #242, #138 ) ;
#311 = EDGE_CURVE ( 'NONE', #198, #11, #15, .T. ) ;
#312 = DIRECTION ( 'NONE',  ( 0.0000000000000000000, 0.0000000000000000000, 1.000000000000000000 ) ) ;
#313 = CARTESIAN_POINT ( 'NONE',  ( 103.3999999999999900, 0.0000000000000000000, 0.0000000000000000000 ) ) ;
#314 = LINE ( 'NONE', #78, #32 ) ;
#315 = EDGE_CURVE ( 'NONE', #340, #354, #120, .T. ) ;
#316 = DIRECTION ( 'NONE',  ( 0.0000000000000000000, 0.0000000000000000000, 1.000000000000000000 ) ) ;
#317 = EDGE_CURVE ( 'NONE', #296, #291, #383, .T. ) ;
#318 = CIRCLE ( 'NONE', #263, 12.69999999999999900 ) ;
#319 = DIRECTION ( 'NONE',  ( -1.000000000000000000, -0.0000000000000000000, -0.0000000000000000000 ) ) ;
#320 = DIRECTION ( 'NONE',  ( -1.000000000000000000, -0.0000000000000000000, -0.0000000000000000000 ) ) ;
#321 = VERTEX_POINT ( 'NONE', #71 ) ;
#322 = CARTESIAN_POINT ( 'NONE',  ( 102.5999999999999900, 1.592040838891559100E-015, -13.00000000000000000 ) ) ;
#323 = CARTESIAN_POINT ( 'NONE',  ( 102.5999999999999900, 0.0000000000000000000, 0.0000000000000000000 ) ) ;
#324 = PERSON_AND_ORGANIZATION ( #115, #300 ) ;
#325 = AXIS2_PLACEMENT_3D ( 'NONE', #14, #262, #350 ) ;
#326 = FACE_OUTER_BOUND ( 'NONE', #406, .T. ) ;
#327 = ADVANCED_FACE ( 'NONE', ( #136 ), #294, .T. ) ;
#328 = DIRECTION ( 'NONE',  ( 1.000000000000000000, 0.0000000000000000000, 0.0000000000000000000 ) ) ;
#329 = ORIENTED_EDGE ( 'NONE', *, *, #394, .F. ) ;
#330 = DIRECTION ( 'NONE',  ( -1.000000000000000000, -0.0000000000000000000, -0.0000000000000000000 ) ) ;
#331 = DIRECTION ( 'NONE',  ( -1.000000000000000000, -0.0000000000000000000, -0.0000000000000000000 ) ) ;
#332 = EDGE_LOOP ( 'NONE', ( #216, #19, #362, #389 ) ) ;
#333 = PLANE ( 'NONE',  #310 ) ;
#334 = APPROVAL_DATE_TIME ( #178, #90 ) ;
#335 = LINE ( 'NONE', #30, #27 ) ;
#336 = CARTESIAN_POINT ( 'NONE',  ( 0.0000000000000000000, 0.0000000000000000000, 0.0000000000000000000 ) ) ;
#337 = EDGE_LOOP ( 'NONE', ( #52, #38, #366, #6 ) ) ;
#338 = AXIS2_PLACEMENT_3D ( 'NONE', #135, #179, #64 ) ;
#339 = CARTESIAN_POINT ( 'NONE',  ( 102.5999999999999900, 0.0000000000000000000, 0.0000000000000000000 ) ) ;
#340 = VERTEX_POINT ( 'NONE', #36 ) ;
#341 = EDGE_CURVE ( 'NONE', #340, #401, #289, .T. ) ;
#342 = CARTESIAN_POINT ( 'NONE',  ( -2.619469026548670400, 0.0000000000000000000, 0.0000000000000000000 ) ) ;
#343 = ORIENTED_EDGE ( 'NONE', *, *, #315, .F. ) ;
#344 = DIRECTION ( 'NONE',  ( -1.000000000000000000, -0.0000000000000000000, -0.0000000000000000000 ) ) ;
#345 = ORIENTED_EDGE ( 'NONE', *, *, #150, .F. ) ;
#346 = APPLICATION_PROTOCOL_DEFINITION ( 'international standard', 'config_control_design', 1994, #91 ) ;
#347 = DIRECTION ( 'NONE',  ( -1.000000000000000000, -0.0000000000000000000, -0.0000000000000000000 ) ) ;
#348 = ORIENTED_EDGE ( 'NONE', *, *, #70, .F. ) ;
#349 = AXIS2_PLACEMENT_3D ( 'NONE', #275, #331, #359 ) ;
#350 = DIRECTION ( 'NONE',  ( 0.0000000000000000000, 0.0000000000000000000, 1.000000000000000000 ) ) ;
#351 = LOCAL_TIME ( 15, 29, 4.000000000000000000, #113 ) ;
#352 = ORIENTED_EDGE ( 'NONE', *, *, #159, .T. ) ;
#353 = CARTESIAN_POINT ( 'NONE',  ( 96.09999999999999400, 0.0000000000000000000, 0.0000000000000000000 ) ) ;
#354 = VERTEX_POINT ( 'NONE', #106 ) ;
#355 = AXIS2_PLACEMENT_3D ( 'NONE', #358, #192, #94 ) ;
#356 = APPROVAL_ROLE ( '' ) ;
#357 =( NAMED_UNIT ( * ) PLANE_ANGLE_UNIT ( ) SI_UNIT ( $, .RADIAN. ) );
#358 = CARTESIAN_POINT ( 'NONE',  ( 0.0000000000000000000, 0.0000000000000000000, 0.0000000000000000000 ) ) ;
#359 = DIRECTION ( 'NONE',  ( 0.0000000000000000000, 0.0000000000000000000, 1.000000000000000000 ) ) ;
#360 = FACE_OUTER_BOUND ( 'NONE', #45, .T. ) ;
#361 = ADVANCED_FACE ( 'NONE', ( #360 ), #397, .T. ) ;
#362 = ORIENTED_EDGE ( 'NONE', *, *, #252, .T. ) ;
#363 = DIRECTION ( 'NONE',  ( -1.000000000000000000, -0.0000000000000000000, -0.0000000000000000000 ) ) ;
#364 = AXIS2_PLACEMENT_3D ( 'NONE', #161, #320, #127 ) ;
#365 = CARTESIAN_POINT ( 'NONE',  ( 102.5999999999999900, 13.00000000000000000, 0.0000000000000000000 ) ) ;
#366 = ORIENTED_EDGE ( 'NONE', *, *, #16, .F. ) ;
#367 = CARTESIAN_POINT ( 'NONE',  ( -2.619469026548670400, 0.0000000000000000000, 0.0000000000000000000 ) ) ;
#368 = UNCERTAINTY_MEASURE_WITH_UNIT (LENGTH_MEASURE( 1.000000000000000100E-005 ), #222, 'distance_accuracy_value', 'NONE');
#369 = CALENDAR_DATE ( 2019, 28, 10 ) ;
#370 = FACE_OUTER_BOUND ( 'NONE', #405, .T. ) ;
#371 = AXIS2_PLACEMENT_3D ( 'NONE', #308, #2, #390 ) ;
#372 = CYLINDRICAL_SURFACE ( 'NONE', #271, 8.000000000000000000 ) ;
#373 = ORIENTED_EDGE ( 'NONE', *, *, #311, .F. ) ;
#374 = CYLINDRICAL_SURFACE ( 'NONE', #349, 12.19999999999999900 ) ;
#375 = PRODUCT ( 'WWL20-150AT STEPÍ¼', 'WWL20-150AT STEPÍ¼', '', ( #239 ) ) ;
#376 = CARTESIAN_POINT ( 'NONE',  ( 102.5999999999999900, 0.0000000000000000000, 0.0000000000000000000 ) ) ;
#377 = CC_DESIGN_APPROVAL ( #55, ( #197 ) ) ;
#378 = CIRCLE ( 'NONE', #364, 12.69999999999999900 ) ;
#379 = ADVANCED_FACE ( 'NONE', ( #114 ), #20, .F. ) ;
#380 = ORIENTED_EDGE ( 'NONE', *, *, #317, .T. ) ;
#381 = PERSON_AND_ORGANIZATION_ROLE ( 'creator' ) ;
#382 = LOCAL_TIME ( 15, 29, 4.000000000000000000, #47 ) ;
#383 = CIRCLE ( 'NONE', #66, 12.19999999999999900 ) ;
#384 = ORIENTED_EDGE ( 'NONE', *, *, #23, .F. ) ;
#385 = ORIENTED_EDGE ( 'NONE', *, *, #29, .F. ) ;
#386 = DIRECTION ( 'NONE',  ( -1.000000000000000000, -0.0000000000000000000, -0.0000000000000000000 ) ) ;
#387 = CARTESIAN_POINT ( 'NONE',  ( 102.5999999999999900, 1.494069094959770900E-015, -12.19999999999999900 ) ) ;
#388 = CC_DESIGN_DATE_AND_TIME_ASSIGNMENT ( #409, #48, ( #197 ) ) ;
#389 = ORIENTED_EDGE ( 'NONE', *, *, #259, .F. ) ;
#390 = DIRECTION ( 'NONE',  ( 0.0000000000000000000, 0.0000000000000000000, 1.000000000000000000 ) ) ;
#391 = CALENDAR_DATE ( 2019, 28, 10 ) ;
#392 = EDGE_CURVE ( 'NONE', #57, #291, #153, .T. ) ;
#393 = EDGE_LOOP ( 'NONE', ( #243, #400, #283, #171 ) ) ;
#394 = EDGE_CURVE ( 'NONE', #131, #184, #129, .T. ) ;
#395 = VERTEX_POINT ( 'NONE', #92 ) ;
#396 = APPROVAL_DATE_TIME ( #224, #55 ) ;
#397 = CYLINDRICAL_SURFACE ( 'NONE', #208, 12.19999999999999900 ) ;
#398 = EDGE_CURVE ( 'NONE', #11, #198, #42, .T. ) ;
#399 = FACE_OUTER_BOUND ( 'NONE', #274, .T. ) ;
#400 = ORIENTED_EDGE ( 'NONE', *, *, #70, .T. ) ;
#401 = VERTEX_POINT ( 'NONE', #297 ) ;
#402 = EDGE_CURVE ( 'NONE', #154, #248, #139, .T. ) ;
#403 = DIRECTION ( 'NONE',  ( 0.0000000000000000000, 0.0000000000000000000, 1.000000000000000000 ) ) ;
#404 = APPROVAL_PERSON_ORGANIZATION ( #98, #55, #356 ) ;
#405 = EDGE_LOOP ( 'NONE', ( #348, #102, #189, #373 ) ) ;
#406 = EDGE_LOOP ( 'NONE', ( #35, #329 ) ) ;
#407 = AXIS2_PLACEMENT_3D ( 'NONE', #323, #21, #56 ) ;
#408 = DIRECTION ( 'NONE',  ( 0.0000000000000000000, 0.0000000000000000000, 1.000000000000000000 ) ) ;
#409 = DATE_AND_TIME ( #369, #195 ) ;
#410 = DIRECTION ( 'NONE',  ( -1.000000000000000000, -0.0000000000000000000, -0.0000000000000000000 ) ) ;
#411 = COORDINATED_UNIVERSAL_TIME_OFFSET ( 8, 0, .AHEAD. ) ;
#412 = AXIS2_PLACEMENT_3D ( 'NONE', #86, #162, #408 ) ;
#413 =( NAMED_UNIT ( * ) SI_UNIT ( $, .STERADIAN. ) SOLID_ANGLE_UNIT ( ) );
#414 = DIRECTION ( 'NONE',  ( -1.000000000000000000, 0.0000000000000000000, -0.0000000000000000000 ) ) ;
#415 = EDGE_CURVE ( 'NONE', #321, #54, #49, .T. ) ;
ENDSEC;
END-ISO-10303-21;
