ISO-10303-21;
HEADER;
FILE_DESCRIPTION (( 'STEP AP203' ),
    '1' );
FILE_NAME ('WWL20-250A STEPÍ¼.STEP',
    '2019-10-28T07:50:42',
    ( '' ),
    ( '' ),
    'SwSTEP 2.0',
    'SolidWorks 2014',
    '' );
FILE_SCHEMA (( 'CONFIG_CONTROL_DESIGN' ));
ENDSEC;

DATA;
#1 = VERTEX_POINT ( 'NONE', #65 ) ;
#2 = ORIENTED_EDGE ( 'NONE', *, *, #361, .F. ) ;
#3 = CALENDAR_DATE ( 2019, 28, 10 ) ;
#4 = ORIENTED_EDGE ( 'NONE', *, *, #377, .T. ) ;
#5 = VECTOR ( 'NONE', #20, 1000.000000000000000 ) ;
#6 = COORDINATED_UNIVERSAL_TIME_OFFSET ( 8, 0, .AHEAD. ) ;
#7 = ORIENTED_EDGE ( 'NONE', *, *, #400, .T. ) ;
#8 = EDGE_LOOP ( 'NONE', ( #352, #102 ) ) ;
#9 = AXIS2_PLACEMENT_3D ( 'NONE', #38, #210, #280 ) ;
#10 = FACE_OUTER_BOUND ( 'NONE', #50, .T. ) ;
#11 = CARTESIAN_POINT ( 'NONE',  ( -5.183999999999992200, 1.592040838891559100E-015, -13.00000000000000000 ) ) ;
#12 = DATE_AND_TIME ( #100, #195 ) ;
#13 = ADVANCED_FACE ( 'NONE', ( #187 ), #381, .T. ) ;
#14 = DIRECTION ( 'NONE',  ( -1.000000000000000000, -0.0000000000000000000, -0.0000000000000000000 ) ) ;
#15 = DIRECTION ( 'NONE',  ( 0.0000000000000000000, 0.0000000000000000000, -1.000000000000000000 ) ) ;
#16 = VERTEX_POINT ( 'NONE', #367 ) ;
#17 = FACE_BOUND ( 'NONE', #8, .T. ) ;
#18 = APPROVAL_DATE_TIME ( #372, #105 ) ;
#19 = CARTESIAN_POINT ( 'NONE',  ( 142.0000000000000000, 1.494069094959773200E-015, -12.20000000000002100 ) ) ;
#20 = DIRECTION ( 'NONE',  ( -1.000000000000000000, -0.0000000000000000000, -0.0000000000000000000 ) ) ;
#21 = ORIENTED_EDGE ( 'NONE', *, *, #62, .F. ) ;
#22 = CARTESIAN_POINT ( 'NONE',  ( -5.183999999999992200, 0.0000000000000000000, 8.000000000000000000 ) ) ;
#23 = APPLICATION_PROTOCOL_DEFINITION ( 'international standard', 'config_control_design', 1994, #297 ) ;
#24 = ORIENTED_EDGE ( 'NONE', *, *, #99, .F. ) ;
#25 = FACE_OUTER_BOUND ( 'NONE', #257, .T. ) ;
#26 = LINE ( 'NONE', #11, #244 ) ;
#27 = CARTESIAN_POINT ( 'NONE',  ( 142.0000000000000000, 0.0000000000000000000, 12.20000000000002100 ) ) ;
#28 = EDGE_LOOP ( 'NONE', ( #127, #4, #59, #170 ) ) ;
#29 = APPROVAL_ROLE ( '' ) ;
#30 = EDGE_CURVE ( 'NONE', #242, #1, #409, .T. ) ;
#31 = DIRECTION ( 'NONE',  ( -1.000000000000000000, -0.0000000000000000000, -0.0000000000000000000 ) ) ;
#32 = ADVANCED_FACE ( 'NONE', ( #337 ), #108, .F. ) ;
#33 = AXIS2_PLACEMENT_3D ( 'NONE', #79, #145, #343 ) ;
#34 = VERTEX_POINT ( 'NONE', #274 ) ;
#35 = CIRCLE ( 'NONE', #315, 12.70000000000002100 ) ;
#36 = PLANE ( 'NONE',  #155 ) ;
#37 = AXIS2_PLACEMENT_3D ( 'NONE', #58, #95, #232 ) ;
#38 = CARTESIAN_POINT ( 'NONE',  ( 142.0000000000000000, 0.0000000000000000000, 0.0000000000000000000 ) ) ;
#39 = EDGE_CURVE ( 'NONE', #91, #355, #35, .T. ) ;
#40 = ADVANCED_FACE ( 'NONE', ( #60 ), #36, .F. ) ;
#41 = CARTESIAN_POINT ( 'NONE',  ( 134.6999999999999900, 0.0000000000000000000, 0.0000000000000000000 ) ) ;
#42 = APPROVAL_DATE_TIME ( #388, #84 ) ;
#43 = DIRECTION ( 'NONE',  ( 1.000000000000000000, 0.0000000000000000000, 0.0000000000000000000 ) ) ;
#44 = CARTESIAN_POINT ( 'NONE',  ( 142.0000000000000000, 0.0000000000000000000, 12.70000000000002100 ) ) ;
#45 = ORIENTED_EDGE ( 'NONE', *, *, #209, .F. ) ;
#46 = CC_DESIGN_APPROVAL ( #84, ( #404 ) ) ;
#47 = DIRECTION ( 'NONE',  ( -1.000000000000000000, -0.0000000000000000000, -0.0000000000000000000 ) ) ;
#48 = EDGE_CURVE ( 'NONE', #303, #16, #265, .T. ) ;
#49 = CARTESIAN_POINT ( 'NONE',  ( 141.1999999999999900, 0.0000000000000000000, 13.00000000000000000 ) ) ;
#50 = EDGE_LOOP ( 'NONE', ( #202, #97, #312, #2 ) ) ;
#51 = CIRCLE ( 'NONE', #224, 12.20000000000002100 ) ;
#52 = DIRECTION ( 'NONE',  ( -1.000000000000000000, -0.0000000000000000000, -0.0000000000000000000 ) ) ;
#53 = DIRECTION ( 'NONE',  ( -1.000000000000000000, -0.0000000000000000000, -0.0000000000000000000 ) ) ;
#54 = CARTESIAN_POINT ( 'NONE',  ( 141.1999999999999900, 0.0000000000000000000, 0.0000000000000000000 ) ) ;
#55 = VERTEX_POINT ( 'NONE', #71 ) ;
#56 = FACE_OUTER_BOUND ( 'NONE', #340, .T. ) ;
#57 = DIRECTION ( 'NONE',  ( 0.0000000000000000000, 0.0000000000000000000, 1.000000000000000000 ) ) ;
#58 = CARTESIAN_POINT ( 'NONE',  ( 134.6999999999999900, 0.0000000000000000000, 0.0000000000000000000 ) ) ;
#59 = ORIENTED_EDGE ( 'NONE', *, *, #184, .F. ) ;
#60 = FACE_OUTER_BOUND ( 'NONE', #269, .T. ) ;
#61 =( LENGTH_UNIT ( ) NAMED_UNIT ( * ) SI_UNIT ( .MILLI., .METRE. ) );
#62 = EDGE_CURVE ( 'NONE', #369, #407, #165, .T. ) ;
#63 = SHAPE_DEFINITION_REPRESENTATION ( #227, #92 ) ;
#64 = PERSON_AND_ORGANIZATION_ROLE ( 'creator' ) ;
#65 = CARTESIAN_POINT ( 'NONE',  ( 134.6999999999999900, 0.0000000000000000000, 8.000000000000000000 ) ) ;
#66 = CIRCLE ( 'NONE', #327, 12.20000000000002100 ) ;
#67 = PRODUCT_DEFINITION_FORMATION_WITH_SPECIFIED_SOURCE ( 'ÈÎºÎ', '', #207, .NOT_KNOWN. ) ;
#68 = ADVANCED_FACE ( 'NONE', ( #119, #288 ), #77, .F. ) ;
#69 = ORGANIZATION ( 'Î´Ö¸¶¨', 'Î´Ö¸¶¨', '' ) ;
#70 = UNCERTAINTY_MEASURE_WITH_UNIT (LENGTH_MEASURE( 1.000000000000000100E-005 ), #61, 'distance_accuracy_value', 'NONE');
#71 = CARTESIAN_POINT ( 'NONE',  ( 141.1999999999999900, 1.494069094959773200E-015, -12.20000000000002100 ) ) ;
#72 = AXIS2_PLACEMENT_3D ( 'NONE', #199, #166, #336 ) ;
#73 = ORIENTED_EDGE ( 'NONE', *, *, #39, .T. ) ;
#74 = ORIENTED_EDGE ( 'NONE', *, *, #104, .F. ) ;
#75 = ORIENTED_EDGE ( 'NONE', *, *, #233, .T. ) ;
#76 = DIRECTION ( 'NONE',  ( -1.000000000000000000, -0.0000000000000000000, -0.0000000000000000000 ) ) ;
#77 = PLANE ( 'NONE',  #132 ) ;
#78 = FACE_OUTER_BOUND ( 'NONE', #220, .T. ) ;
#79 = CARTESIAN_POINT ( 'NONE',  ( 145.1999999999999900, 0.0000000000000000000, 0.0000000000000000000 ) ) ;
#80 = AXIS2_PLACEMENT_3D ( 'NONE', #342, #76, #140 ) ;
#81 = DIRECTION ( 'NONE',  ( -1.000000000000000000, -0.0000000000000000000, -0.0000000000000000000 ) ) ;
#82 = EDGE_LOOP ( 'NONE', ( #146, #107, #329, #171 ) ) ;
#83 = ORIENTED_EDGE ( 'NONE', *, *, #87, .T. ) ;
#84 = APPROVAL ( #323, 'Î´Ö¸¶¨' ) ;
#85 = DIRECTION ( 'NONE',  ( -1.000000000000000000, -0.0000000000000000000, -0.0000000000000000000 ) ) ;
#86 = CALENDAR_DATE ( 2019, 28, 10 ) ;
#87 = EDGE_CURVE ( 'NONE', #124, #196, #399, .T. ) ;
#88 = CARTESIAN_POINT ( 'NONE',  ( -5.183999999999992200, 0.0000000000000000000, 0.0000000000000000000 ) ) ;
#89 = LINE ( 'NONE', #261, #364 ) ;
#90 = DIRECTION ( 'NONE',  ( -1.000000000000000000, -0.0000000000000000000, -0.0000000000000000000 ) ) ;
#91 = VERTEX_POINT ( 'NONE', #44 ) ;
#92 = ADVANCED_BREP_SHAPE_REPRESENTATION ( 'WWL20-250A STEPÍ¼', ( #319, #163 ), #373 ) ;
#93 = DIRECTION ( 'NONE',  ( 0.0000000000000000000, 0.0000000000000000000, 1.000000000000000000 ) ) ;
#94 = PRODUCT_RELATED_PRODUCT_CATEGORY ( 'detail', '', ( #207 ) ) ;
#95 = DIRECTION ( 'NONE',  ( -1.000000000000000000, -0.0000000000000000000, -0.0000000000000000000 ) ) ;
#96 = APPROVAL ( #386, 'Î´Ö¸¶¨' ) ;
#97 = ORIENTED_EDGE ( 'NONE', *, *, #62, .T. ) ;
#98 = CIRCLE ( 'NONE', #80, 12.70000000000002100 ) ;
#99 = EDGE_CURVE ( 'NONE', #129, #196, #26, .T. ) ;
#100 = CALENDAR_DATE ( 2019, 28, 10 ) ;
#101 =( NAMED_UNIT ( * ) SI_UNIT ( $, .STERADIAN. ) SOLID_ANGLE_UNIT ( ) );
#102 = ORIENTED_EDGE ( 'NONE', *, *, #30, .F. ) ;
#103 = CIRCLE ( 'NONE', #368, 13.00000000000000000 ) ;
#104 = EDGE_CURVE ( 'NONE', #355, #91, #98, .T. ) ;
#105 = APPROVAL ( #301, 'Î´Ö¸¶¨' ) ;
#106 = AXIS2_PLACEMENT_3D ( 'NONE', #158, #382, #230 ) ;
#107 = ORIENTED_EDGE ( 'NONE', *, *, #334, .T. ) ;
#108 = PLANE ( 'NONE',  #72 ) ;
#109 = CC_DESIGN_PERSON_AND_ORGANIZATION_ASSIGNMENT ( #174, #357, ( #404 ) ) ;
#110 = DIRECTION ( 'NONE',  ( 1.000000000000000000, 0.0000000000000000000, 0.0000000000000000000 ) ) ;
#111 = EDGE_CURVE ( 'NONE', #407, #369, #189, .T. ) ;
#112 = ORIENTED_EDGE ( 'NONE', *, *, #400, .F. ) ;
#113 = LINE ( 'NONE', #410, #5 ) ;
#114 = PLANE ( 'NONE',  #139 ) ;
#115 = DIRECTION ( 'NONE',  ( 0.0000000000000000000, 0.0000000000000000000, 1.000000000000000000 ) ) ;
#116 = ORIENTED_EDGE ( 'NONE', *, *, #406, .T. ) ;
#117 = CC_DESIGN_APPROVAL ( #96, ( #67 ) ) ;
#118 = CYLINDRICAL_SURFACE ( 'NONE', #144, 13.00000000000000000 ) ;
#119 = FACE_BOUND ( 'NONE', #397, .T. ) ;
#120 = DIRECTION ( 'NONE',  ( -0.0000000000000000000, 0.0000000000000000000, 1.000000000000000000 ) ) ;
#121 = AXIS2_PLACEMENT_3D ( 'NONE', #185, #81, #253 ) ;
#122 = PLANE ( 'NONE',  #371 ) ;
#123 = APPROVAL_PERSON_ORGANIZATION ( #206, #96, #200 ) ;
#124 = VERTEX_POINT ( 'NONE', #143 ) ;
#125 = CARTESIAN_POINT ( 'NONE',  ( -5.183999999999992200, 0.0000000000000000000, 0.0000000000000000000 ) ) ;
#126 = DIRECTION ( 'NONE',  ( 0.0000000000000000000, 0.0000000000000000000, 1.000000000000000000 ) ) ;
#127 = ORIENTED_EDGE ( 'NONE', *, *, #260, .T. ) ;
#128 = APPROVAL_ROLE ( '' ) ;
#129 = VERTEX_POINT ( 'NONE', #251 ) ;
#130 = DIRECTION ( 'NONE',  ( 0.0000000000000000000, 0.0000000000000000000, 1.000000000000000000 ) ) ;
#131 = AXIS2_PLACEMENT_3D ( 'NONE', #156, #293, #228 ) ;
#132 = AXIS2_PLACEMENT_3D ( 'NONE', #217, #110, #208 ) ;
#133 = LOCAL_TIME ( 15, 50, 42.00000000000000000, #138 ) ;
#134 = ORIENTED_EDGE ( 'NONE', *, *, #361, .T. ) ;
#135 = FACE_OUTER_BOUND ( 'NONE', #275, .T. ) ;
#136 = CC_DESIGN_DATE_AND_TIME_ASSIGNMENT ( #324, #201, ( #391 ) ) ;
#137 = CARTESIAN_POINT ( 'NONE',  ( 134.6999999999999900, 0.0000000000000000000, 0.0000000000000000000 ) ) ;
#138 = COORDINATED_UNIVERSAL_TIME_OFFSET ( 8, 0, .AHEAD. ) ;
#139 = AXIS2_PLACEMENT_3D ( 'NONE', #310, #218, #15 ) ;
#140 = DIRECTION ( 'NONE',  ( 0.0000000000000000000, 0.0000000000000000000, 1.000000000000000000 ) ) ;
#141 = VERTEX_POINT ( 'NONE', #306 ) ;
#142 = LINE ( 'NONE', #350, #390 ) ;
#143 = CARTESIAN_POINT ( 'NONE',  ( 134.6999999999999900, 0.0000000000000000000, 13.00000000000000000 ) ) ;
#144 = AXIS2_PLACEMENT_3D ( 'NONE', #190, #266, #321 ) ;
#145 = DIRECTION ( 'NONE',  ( -1.000000000000000000, -0.0000000000000000000, -0.0000000000000000000 ) ) ;
#146 = ORIENTED_EDGE ( 'NONE', *, *, #111, .T. ) ;
#147 = APPROVAL_PERSON_ORGANIZATION ( #239, #105, #29 ) ;
#148 = CARTESIAN_POINT ( 'NONE',  ( -5.183999999999992200, 0.0000000000000000000, 0.0000000000000000000 ) ) ;
#149 = CARTESIAN_POINT ( 'NONE',  ( -5.183999999999992200, 0.0000000000000000000, 12.20000000000002100 ) ) ;
#150 = DIRECTION ( 'NONE',  ( -1.000000000000000000, 0.0000000000000000000, -0.0000000000000000000 ) ) ;
#151 = ORIENTED_EDGE ( 'NONE', *, *, #99, .T. ) ;
#152 = ORIENTED_EDGE ( 'NONE', *, *, #48, .T. ) ;
#153 = ORIENTED_EDGE ( 'NONE', *, *, #233, .F. ) ;
#154 = LOCAL_TIME ( 15, 50, 42.00000000000000000, #314 ) ;
#155 = AXIS2_PLACEMENT_3D ( 'NONE', #179, #43, #173 ) ;
#156 = CARTESIAN_POINT ( 'NONE',  ( -5.183999999999992200, 0.0000000000000000000, 0.0000000000000000000 ) ) ;
#157 = ORIENTED_EDGE ( 'NONE', *, *, #48, .F. ) ;
#158 = CARTESIAN_POINT ( 'NONE',  ( 134.6999999999999900, 0.0000000000000000000, 0.0000000000000000000 ) ) ;
#159 = CC_DESIGN_SECURITY_CLASSIFICATION ( #391, ( #67 ) ) ;
#160 = ORIENTED_EDGE ( 'NONE', *, *, #286, .T. ) ;
#161 = DIRECTION ( 'NONE',  ( -1.000000000000000000, -0.0000000000000000000, -0.0000000000000000000 ) ) ;
#162 = EDGE_CURVE ( 'NONE', #344, #55, #66, .T. ) ;
#163 = AXIS2_PLACEMENT_3D ( 'NONE', #326, #57, #197 ) ;
#164 = ORIENTED_EDGE ( 'NONE', *, *, #184, .T. ) ;
#165 = CIRCLE ( 'NONE', #9, 12.20000000000002100 ) ;
#166 = DIRECTION ( 'NONE',  ( -1.000000000000000000, 0.0000000000000000000, -0.0000000000000000000 ) ) ;
#167 = SECURITY_CLASSIFICATION_LEVEL ( 'unclassified' ) ;
#168 = AXIS2_PLACEMENT_3D ( 'NONE', #291, #90, #192 ) ;
#169 = ADVANCED_FACE ( 'NONE', ( #17, #183 ), #114, .F. ) ;
#170 = ORIENTED_EDGE ( 'NONE', *, *, #286, .F. ) ;
#171 = ORIENTED_EDGE ( 'NONE', *, *, #229, .F. ) ;
#172 = APPROVAL_DATE_TIME ( #12, #96 ) ;
#173 = DIRECTION ( 'NONE',  ( 0.0000000000000000000, 0.0000000000000000000, -1.000000000000000000 ) ) ;
#174 = PERSON_AND_ORGANIZATION ( #308, #69 ) ;
#175 = ADVANCED_FACE ( 'NONE', ( #10 ), #411, .T. ) ;
#176 = AXIS2_PLACEMENT_3D ( 'NONE', #41, #278, #248 ) ;
#177 = ORIENTED_EDGE ( 'NONE', *, *, #279, .F. ) ;
#178 = CYLINDRICAL_SURFACE ( 'NONE', #131, 12.70000000000002100 ) ;
#179 = CARTESIAN_POINT ( 'NONE',  ( 0.0000000000000000000, 0.0000000000000000000, 0.0000000000000000000 ) ) ;
#180 = CARTESIAN_POINT ( 'NONE',  ( 145.1999999999999900, 0.0000000000000000000, 0.0000000000000000000 ) ) ;
#181 = DIRECTION ( 'NONE',  ( 0.0000000000000000000, 0.0000000000000000000, 1.000000000000000000 ) ) ;
#182 = ORIENTED_EDGE ( 'NONE', *, *, #30, .T. ) ;
#183 = FACE_OUTER_BOUND ( 'NONE', #219, .T. ) ;
#184 = EDGE_CURVE ( 'NONE', #34, #141, #252, .T. ) ;
#185 = CARTESIAN_POINT ( 'NONE',  ( 0.0000000000000000000, 0.0000000000000000000, 0.0000000000000000000 ) ) ;
#186 = CARTESIAN_POINT ( 'NONE',  ( 142.0000000000000000, 1.555301434917141000E-015, -12.70000000000002100 ) ) ;
#187 = FACE_OUTER_BOUND ( 'NONE', #82, .T. ) ;
#188 = DIRECTION ( 'NONE',  ( 0.0000000000000000000, 0.0000000000000000000, 1.000000000000000000 ) ) ;
#189 = CIRCLE ( 'NONE', #198, 12.20000000000002100 ) ;
#190 = CARTESIAN_POINT ( 'NONE',  ( -5.183999999999992200, 0.0000000000000000000, 0.0000000000000000000 ) ) ;
#191 = PERSON_AND_ORGANIZATION ( #308, #69 ) ;
#192 = DIRECTION ( 'NONE',  ( 0.0000000000000000000, 0.0000000000000000000, 1.000000000000000000 ) ) ;
#193 = EDGE_LOOP ( 'NONE', ( #415, #134 ) ) ;
#194 = LINE ( 'NONE', #22, #250 ) ;
#195 = LOCAL_TIME ( 15, 50, 42.00000000000000000, #289 ) ;
#196 = VERTEX_POINT ( 'NONE', #284 ) ;
#197 = DIRECTION ( 'NONE',  ( 1.000000000000000000, 0.0000000000000000000, 0.0000000000000000000 ) ) ;
#198 = AXIS2_PLACEMENT_3D ( 'NONE', #213, #14, #376 ) ;
#199 = CARTESIAN_POINT ( 'NONE',  ( 145.1999999999999900, 12.70000000000002100, 0.0000000000000000000 ) ) ;
#200 = APPROVAL_ROLE ( '' ) ;
#201 = DATE_TIME_ROLE ( 'classification_date' ) ;
#202 = ORIENTED_EDGE ( 'NONE', *, *, #334, .F. ) ;
#203 = CYLINDRICAL_SURFACE ( 'NONE', #255, 13.00000000000000000 ) ;
#204 = ADVANCED_FACE ( 'NONE', ( #78 ), #403, .T. ) ;
#205 = PERSON_AND_ORGANIZATION ( #308, #69 ) ;
#206 = PERSON_AND_ORGANIZATION ( #308, #69 ) ;
#207 = PRODUCT ( 'WWL20-250A STEPÍ¼', 'WWL20-250A STEPÍ¼', '', ( #270 ) ) ;
#208 = DIRECTION ( 'NONE',  ( 0.0000000000000000000, 0.0000000000000000000, -1.000000000000000000 ) ) ;
#209 = EDGE_CURVE ( 'NONE', #16, #303, #238, .T. ) ;
#210 = DIRECTION ( 'NONE',  ( -1.000000000000000000, -0.0000000000000000000, -0.0000000000000000000 ) ) ;
#211 = ADVANCED_FACE ( 'NONE', ( #322, #316 ), #122, .F. ) ;
#212 = EDGE_LOOP ( 'NONE', ( #24, #363, #75, #281 ) ) ;
#213 = CARTESIAN_POINT ( 'NONE',  ( 142.0000000000000000, 0.0000000000000000000, 0.0000000000000000000 ) ) ;
#214 = AXIS2_PLACEMENT_3D ( 'NONE', #125, #317, #126 ) ;
#215 = DIRECTION ( 'NONE',  ( -1.000000000000000000, -0.0000000000000000000, -0.0000000000000000000 ) ) ;
#216 = LOCAL_TIME ( 15, 50, 42.00000000000000000, #300 ) ;
#217 = CARTESIAN_POINT ( 'NONE',  ( 142.0000000000000000, 12.20000000000002100, 0.0000000000000000000 ) ) ;
#218 = DIRECTION ( 'NONE',  ( 1.000000000000000000, 0.0000000000000000000, 0.0000000000000000000 ) ) ;
#219 = EDGE_LOOP ( 'NONE', ( #83, #116 ) ) ;
#220 = EDGE_LOOP ( 'NONE', ( #374, #182, #160, #345 ) ) ;
#221 = AXIS2_PLACEMENT_3D ( 'NONE', #346, #256, #181 ) ;
#222 = DIRECTION ( 'NONE',  ( 0.0000000000000000000, 0.0000000000000000000, 1.000000000000000000 ) ) ;
#223 = DIRECTION ( 'NONE',  ( -1.000000000000000000, -0.0000000000000000000, -0.0000000000000000000 ) ) ;
#224 = AXIS2_PLACEMENT_3D ( 'NONE', #54, #294, #93 ) ;
#225 = DIRECTION ( 'NONE',  ( 0.0000000000000000000, 0.0000000000000000000, 1.000000000000000000 ) ) ;
#226 = ORIENTED_EDGE ( 'NONE', *, *, #387, .F. ) ;
#227 = PRODUCT_DEFINITION_SHAPE ( 'NONE', 'NONE',  #404 ) ;
#228 = DIRECTION ( 'NONE',  ( 0.0000000000000000000, 0.0000000000000000000, 1.000000000000000000 ) ) ;
#229 = EDGE_CURVE ( 'NONE', #407, #344, #264, .T. ) ;
#230 = DIRECTION ( 'NONE',  ( 0.0000000000000000000, 0.0000000000000000000, 1.000000000000000000 ) ) ;
#231 = PERSON_AND_ORGANIZATION_ROLE ( 'design_owner' ) ;
#232 = DIRECTION ( 'NONE',  ( 0.0000000000000000000, 0.0000000000000000000, 1.000000000000000000 ) ) ;
#233 = EDGE_CURVE ( 'NONE', #379, #124, #320, .T. ) ;
#234 = EDGE_LOOP ( 'NONE', ( #112, #295 ) ) ;
#235 = DIRECTION ( 'NONE',  ( -1.000000000000000000, -0.0000000000000000000, -0.0000000000000000000 ) ) ;
#236 = ADVANCED_FACE ( 'NONE', ( #56 ), #375, .T. ) ;
#237 = CIRCLE ( 'NONE', #168, 8.000000000000000000 ) ;
#238 = CIRCLE ( 'NONE', #292, 12.70000000000002100 ) ;
#239 = PERSON_AND_ORGANIZATION ( #308, #69 ) ;
#240 = EDGE_CURVE ( 'NONE', #129, #379, #290, .T. ) ;
#241 = DATE_AND_TIME ( #86, #216 ) ;
#242 = VERTEX_POINT ( 'NONE', #259 ) ;
#243 = DIRECTION ( 'NONE',  ( -1.000000000000000000, -0.0000000000000000000, -0.0000000000000000000 ) ) ;
#244 = VECTOR ( 'NONE', #243, 1000.000000000000000 ) ;
#245 = CC_DESIGN_DATE_AND_TIME_ASSIGNMENT ( #241, #267, ( #404 ) ) ;
#246 = DIRECTION ( 'NONE',  ( -1.000000000000000000, -0.0000000000000000000, -0.0000000000000000000 ) ) ;
#247 = PERSON_AND_ORGANIZATION ( #308, #69 ) ;
#248 = DIRECTION ( 'NONE',  ( 0.0000000000000000000, 0.0000000000000000000, 1.000000000000000000 ) ) ;
#249 = ORIENTED_EDGE ( 'NONE', *, *, #387, .T. ) ;
#250 = VECTOR ( 'NONE', #53, 1000.000000000000000 ) ;
#251 = CARTESIAN_POINT ( 'NONE',  ( 141.1999999999999900, 1.592040838891559100E-015, -13.00000000000000000 ) ) ;
#252 = CIRCLE ( 'NONE', #121, 8.000000000000000000 ) ;
#253 = DIRECTION ( 'NONE',  ( 0.0000000000000000000, 0.0000000000000000000, 1.000000000000000000 ) ) ;
#254 = DIRECTION ( 'NONE',  ( 0.0000000000000000000, 0.0000000000000000000, 1.000000000000000000 ) ) ;
#255 = AXIS2_PLACEMENT_3D ( 'NONE', #362, #161, #271 ) ;
#256 = DIRECTION ( 'NONE',  ( -1.000000000000000000, -0.0000000000000000000, -0.0000000000000000000 ) ) ;
#257 = EDGE_LOOP ( 'NONE', ( #7, #151, #328, #153 ) ) ;
#258 = ORIENTED_EDGE ( 'NONE', *, *, #279, .T. ) ;
#259 = CARTESIAN_POINT ( 'NONE',  ( 134.6999999999999900, 9.797174393178825700E-016, -8.000000000000000000 ) ) ;
#260 = EDGE_CURVE ( 'NONE', #1, #242, #380, .T. ) ;
#261 = CARTESIAN_POINT ( 'NONE',  ( -5.183999999999992200, 1.555301434917141000E-015, -12.70000000000002100 ) ) ;
#262 = CARTESIAN_POINT ( 'NONE',  ( 141.1999999999999900, 0.0000000000000000000, 12.20000000000002100 ) ) ;
#263 = EDGE_LOOP ( 'NONE', ( #45, #157 ) ) ;
#264 = LINE ( 'NONE', #149, #402 ) ;
#265 = CIRCLE ( 'NONE', #33, 12.70000000000002100 ) ;
#266 = DIRECTION ( 'NONE',  ( -1.000000000000000000, -0.0000000000000000000, -0.0000000000000000000 ) ) ;
#267 = DATE_TIME_ROLE ( 'creation_date' ) ;
#268 = DIRECTION ( 'NONE',  ( -1.000000000000000000, -0.0000000000000000000, -0.0000000000000000000 ) ) ;
#269 = EDGE_LOOP ( 'NONE', ( #164, #276 ) ) ;
#270 = MECHANICAL_CONTEXT ( 'NONE', #332, 'mechanical' ) ;
#271 = DIRECTION ( 'NONE',  ( 0.0000000000000000000, 0.0000000000000000000, 1.000000000000000000 ) ) ;
#272 = DIRECTION ( 'NONE',  ( 0.0000000000000000000, 0.0000000000000000000, 1.000000000000000000 ) ) ;
#273 = PERSON_AND_ORGANIZATION ( #308, #69 ) ;
#274 = CARTESIAN_POINT ( 'NONE',  ( 0.0000000000000000000, 0.0000000000000000000, 8.000000000000000000 ) ) ;
#275 = EDGE_LOOP ( 'NONE', ( #177, #152, #249, #74 ) ) ;
#276 = ORIENTED_EDGE ( 'NONE', *, *, #305, .T. ) ;
#277 = DIRECTION ( 'NONE',  ( 0.0000000000000000000, 0.0000000000000000000, 1.000000000000000000 ) ) ;
#278 = DIRECTION ( 'NONE',  ( -1.000000000000000000, -0.0000000000000000000, -0.0000000000000000000 ) ) ;
#279 = EDGE_CURVE ( 'NONE', #303, #355, #89, .T. ) ;
#280 = DIRECTION ( 'NONE',  ( 0.0000000000000000000, 0.0000000000000000000, 1.000000000000000000 ) ) ;
#281 = ORIENTED_EDGE ( 'NONE', *, *, #406, .F. ) ;
#282 = FACE_OUTER_BOUND ( 'NONE', #28, .T. ) ;
#283 = DIRECTION ( 'NONE',  ( 0.0000000000000000000, 0.0000000000000000000, 1.000000000000000000 ) ) ;
#284 = CARTESIAN_POINT ( 'NONE',  ( 134.6999999999999900, 1.592040838891559100E-015, -13.00000000000000000 ) ) ;
#285 = ORIENTED_EDGE ( 'NONE', *, *, #111, .F. ) ;
#286 = EDGE_CURVE ( 'NONE', #1, #34, #194, .T. ) ;
#287 = CARTESIAN_POINT ( 'NONE',  ( 141.1999999999999900, 13.00000000000000000, 0.0000000000000000000 ) ) ;
#288 = FACE_OUTER_BOUND ( 'NONE', #348, .T. ) ;
#289 = COORDINATED_UNIVERSAL_TIME_OFFSET ( 8, 0, .AHEAD. ) ;
#290 = CIRCLE ( 'NONE', #353, 13.00000000000000000 ) ;
#291 = CARTESIAN_POINT ( 'NONE',  ( 0.0000000000000000000, 0.0000000000000000000, 0.0000000000000000000 ) ) ;
#292 = AXIS2_PLACEMENT_3D ( 'NONE', #180, #313, #115 ) ;
#293 = DIRECTION ( 'NONE',  ( -1.000000000000000000, -0.0000000000000000000, -0.0000000000000000000 ) ) ;
#294 = DIRECTION ( 'NONE',  ( -1.000000000000000000, -0.0000000000000000000, -0.0000000000000000000 ) ) ;
#295 = ORIENTED_EDGE ( 'NONE', *, *, #240, .F. ) ;
#296 = APPLICATION_PROTOCOL_DEFINITION ( 'international standard', 'config_control_design', 1994, #332 ) ;
#297 = APPLICATION_CONTEXT ( 'configuration controlled 3d designs of mechanical parts and assemblies' ) ;
#298 = AXIS2_PLACEMENT_3D ( 'NONE', #398, #31, #277 ) ;
#299 =( NAMED_UNIT ( * ) PLANE_ANGLE_UNIT ( ) SI_UNIT ( $, .RADIAN. ) );
#300 = COORDINATED_UNIVERSAL_TIME_OFFSET ( 8, 0, .AHEAD. ) ;
#301 = APPROVAL_STATUS ( 'not_yet_approved' ) ;
#302 = CC_DESIGN_PERSON_AND_ORGANIZATION_ASSIGNMENT ( #325, #231, ( #207 ) ) ;
#303 = VERTEX_POINT ( 'NONE', #351 ) ;
#304 = VECTOR ( 'NONE', #412, 1000.000000000000000 ) ;
#305 = EDGE_CURVE ( 'NONE', #141, #34, #237, .T. ) ;
#306 = CARTESIAN_POINT ( 'NONE',  ( 0.0000000000000000000, 9.797174393178825700E-016, -8.000000000000000000 ) ) ;
#307 = FACE_OUTER_BOUND ( 'NONE', #212, .T. ) ;
#308 = PERSON ( 'Î´Ö¸¶¨', 'Î´Ö¸¶¨', 'Î´Ö¸¶¨', ('Î´Ö¸¶¨'), ('Î´Ö¸¶¨'), ('Î´Ö¸¶¨') ) ;
#309 = AXIS2_PLACEMENT_3D ( 'NONE', #148, #47, #222 ) ;
#310 = CARTESIAN_POINT ( 'NONE',  ( 134.6999999999999900, 8.000000000000000000, 0.0000000000000000000 ) ) ;
#311 = CC_DESIGN_APPROVAL ( #105, ( #391 ) ) ;
#312 = ORIENTED_EDGE ( 'NONE', *, *, #229, .T. ) ;
#313 = DIRECTION ( 'NONE',  ( -1.000000000000000000, -0.0000000000000000000, -0.0000000000000000000 ) ) ;
#314 = COORDINATED_UNIVERSAL_TIME_OFFSET ( 8, 0, .AHEAD. ) ;
#315 = AXIS2_PLACEMENT_3D ( 'NONE', #378, #246, #283 ) ;
#316 = FACE_BOUND ( 'NONE', #193, .T. ) ;
#317 = DIRECTION ( 'NONE',  ( -1.000000000000000000, -0.0000000000000000000, -0.0000000000000000000 ) ) ;
#318 = CARTESIAN_POINT ( 'NONE',  ( -5.183999999999992200, 9.797174393178825700E-016, -8.000000000000000000 ) ) ;
#319 = MANIFOLD_SOLID_BREP ( 'Ðý×ª1', #389 ) ;
#320 = LINE ( 'NONE', #408, #370 ) ;
#321 = DIRECTION ( 'NONE',  ( 0.0000000000000000000, 0.0000000000000000000, 1.000000000000000000 ) ) ;
#322 = FACE_OUTER_BOUND ( 'NONE', #234, .T. ) ;
#323 = APPROVAL_STATUS ( 'not_yet_approved' ) ;
#324 = DATE_AND_TIME ( #405, #331 ) ;
#325 = PERSON_AND_ORGANIZATION ( #308, #69 ) ;
#326 = CARTESIAN_POINT ( 'NONE',  ( 0.0000000000000000000, 0.0000000000000000000, 0.0000000000000000000 ) ) ;
#327 = AXIS2_PLACEMENT_3D ( 'NONE', #341, #349, #254 ) ;
#328 = ORIENTED_EDGE ( 'NONE', *, *, #87, .F. ) ;
#329 = ORIENTED_EDGE ( 'NONE', *, *, #162, .F. ) ;
#330 = CC_DESIGN_PERSON_AND_ORGANIZATION_ASSIGNMENT ( #191, #365, ( #67 ) ) ;
#331 = LOCAL_TIME ( 15, 50, 42.00000000000000000, #6 ) ;
#332 = APPLICATION_CONTEXT ( 'configuration controlled 3d designs of mechanical parts and assemblies' ) ;
#333 = CC_DESIGN_PERSON_AND_ORGANIZATION_ASSIGNMENT ( #205, #393, ( #391 ) ) ;
#334 = EDGE_CURVE ( 'NONE', #369, #55, #113, .T. ) ;
#335 = ADVANCED_FACE ( 'NONE', ( #135 ), #178, .T. ) ;
#336 = DIRECTION ( 'NONE',  ( -0.0000000000000000000, 0.0000000000000000000, 1.000000000000000000 ) ) ;
#337 = FACE_OUTER_BOUND ( 'NONE', #263, .T. ) ;
#338 = APPROVAL_PERSON_ORGANIZATION ( #247, #84, #128 ) ;
#339 = ADVANCED_FACE ( 'NONE', ( #282 ), #359, .T. ) ;
#340 = EDGE_LOOP ( 'NONE', ( #384, #258, #358, #226 ) ) ;
#341 = CARTESIAN_POINT ( 'NONE',  ( 141.1999999999999900, 0.0000000000000000000, 0.0000000000000000000 ) ) ;
#342 = CARTESIAN_POINT ( 'NONE',  ( 142.0000000000000000, 0.0000000000000000000, 0.0000000000000000000 ) ) ;
#343 = DIRECTION ( 'NONE',  ( 0.0000000000000000000, 0.0000000000000000000, 1.000000000000000000 ) ) ;
#344 = VERTEX_POINT ( 'NONE', #262 ) ;
#345 = ORIENTED_EDGE ( 'NONE', *, *, #305, .F. ) ;
#346 = CARTESIAN_POINT ( 'NONE',  ( -5.183999999999992200, 0.0000000000000000000, 0.0000000000000000000 ) ) ;
#347 = ORIENTED_EDGE ( 'NONE', *, *, #104, .T. ) ;
#348 = EDGE_LOOP ( 'NONE', ( #73, #347 ) ) ;
#349 = DIRECTION ( 'NONE',  ( -1.000000000000000000, -0.0000000000000000000, -0.0000000000000000000 ) ) ;
#350 = CARTESIAN_POINT ( 'NONE',  ( -5.183999999999992200, 0.0000000000000000000, 12.70000000000002100 ) ) ;
#351 = CARTESIAN_POINT ( 'NONE',  ( 145.1999999999999900, 1.555301434917141000E-015, -12.70000000000002100 ) ) ;
#352 = ORIENTED_EDGE ( 'NONE', *, *, #260, .F. ) ;
#353 = AXIS2_PLACEMENT_3D ( 'NONE', #383, #85, #225 ) ;
#354 = CIRCLE ( 'NONE', #37, 13.00000000000000000 ) ;
#355 = VERTEX_POINT ( 'NONE', #186 ) ;
#356 = DIRECTION ( 'NONE',  ( -1.000000000000000000, -0.0000000000000000000, -0.0000000000000000000 ) ) ;
#357 = PERSON_AND_ORGANIZATION_ROLE ( 'creator' ) ;
#358 = ORIENTED_EDGE ( 'NONE', *, *, #39, .F. ) ;
#359 = CYLINDRICAL_SURFACE ( 'NONE', #214, 8.000000000000000000 ) ;
#360 = CC_DESIGN_PERSON_AND_ORGANIZATION_ASSIGNMENT ( #273, #64, ( #67 ) ) ;
#361 = EDGE_CURVE ( 'NONE', #55, #344, #51, .T. ) ;
#362 = CARTESIAN_POINT ( 'NONE',  ( -5.183999999999992200, 0.0000000000000000000, 0.0000000000000000000 ) ) ;
#363 = ORIENTED_EDGE ( 'NONE', *, *, #240, .T. ) ;
#364 = VECTOR ( 'NONE', #52, 1000.000000000000000 ) ;
#365 = PERSON_AND_ORGANIZATION_ROLE ( 'design_supplier' ) ;
#366 = ADVANCED_FACE ( 'NONE', ( #307 ), #118, .T. ) ;
#367 = CARTESIAN_POINT ( 'NONE',  ( 145.1999999999999900, 0.0000000000000000000, 12.70000000000002100 ) ) ;
#368 = AXIS2_PLACEMENT_3D ( 'NONE', #414, #268, #130 ) ;
#369 = VERTEX_POINT ( 'NONE', #19 ) ;
#370 = VECTOR ( 'NONE', #215, 1000.000000000000000 ) ;
#371 = AXIS2_PLACEMENT_3D ( 'NONE', #287, #150, #120 ) ;
#372 = DATE_AND_TIME ( #3, #154 ) ;
#373 =( GEOMETRIC_REPRESENTATION_CONTEXT ( 3 ) GLOBAL_UNCERTAINTY_ASSIGNED_CONTEXT ( ( #70 ) ) GLOBAL_UNIT_ASSIGNED_CONTEXT ( ( #61, #299, #101 ) ) REPRESENTATION_CONTEXT ( 'NONE', 'WORKASPACE' ) );
#374 = ORIENTED_EDGE ( 'NONE', *, *, #377, .F. ) ;
#375 = CYLINDRICAL_SURFACE ( 'NONE', #394, 12.70000000000002100 ) ;
#376 = DIRECTION ( 'NONE',  ( 0.0000000000000000000, 0.0000000000000000000, 1.000000000000000000 ) ) ;
#377 = EDGE_CURVE ( 'NONE', #242, #141, #385, .T. ) ;
#378 = CARTESIAN_POINT ( 'NONE',  ( 142.0000000000000000, 0.0000000000000000000, 0.0000000000000000000 ) ) ;
#379 = VERTEX_POINT ( 'NONE', #49 ) ;
#380 = CIRCLE ( 'NONE', #106, 8.000000000000000000 ) ;
#381 = CYLINDRICAL_SURFACE ( 'NONE', #298, 12.20000000000002100 ) ;
#382 = DIRECTION ( 'NONE',  ( -1.000000000000000000, -0.0000000000000000000, -0.0000000000000000000 ) ) ;
#383 = CARTESIAN_POINT ( 'NONE',  ( 141.1999999999999900, 0.0000000000000000000, 0.0000000000000000000 ) ) ;
#384 = ORIENTED_EDGE ( 'NONE', *, *, #209, .T. ) ;
#385 = LINE ( 'NONE', #318, #304 ) ;
#386 = APPROVAL_STATUS ( 'not_yet_approved' ) ;
#387 = EDGE_CURVE ( 'NONE', #16, #91, #142, .T. ) ;
#388 = DATE_AND_TIME ( #401, #133 ) ;
#389 = CLOSED_SHELL ( 'NONE', ( #236, #13, #392, #339, #40, #204, #169, #366, #211, #175, #68, #335, #32 ) ) ;
#390 = VECTOR ( 'NONE', #235, 1000.000000000000000 ) ;
#391 = SECURITY_CLASSIFICATION ( '', '', #167 ) ;
#392 = ADVANCED_FACE ( 'NONE', ( #25 ), #203, .T. ) ;
#393 = PERSON_AND_ORGANIZATION_ROLE ( 'classification_officer' ) ;
#394 = AXIS2_PLACEMENT_3D ( 'NONE', #88, #356, #188 ) ;
#395 = DESIGN_CONTEXT ( 'detailed design', #297, 'design' ) ;
#396 = DIRECTION ( 'NONE',  ( -1.000000000000000000, -0.0000000000000000000, -0.0000000000000000000 ) ) ;
#397 = EDGE_LOOP ( 'NONE', ( #285, #21 ) ) ;
#398 = CARTESIAN_POINT ( 'NONE',  ( -5.183999999999992200, 0.0000000000000000000, 0.0000000000000000000 ) ) ;
#399 = CIRCLE ( 'NONE', #176, 13.00000000000000000 ) ;
#400 = EDGE_CURVE ( 'NONE', #379, #129, #103, .T. ) ;
#401 = CALENDAR_DATE ( 2019, 28, 10 ) ;
#402 = VECTOR ( 'NONE', #223, 1000.000000000000000 ) ;
#403 = CYLINDRICAL_SURFACE ( 'NONE', #309, 8.000000000000000000 ) ;
#404 = PRODUCT_DEFINITION ( 'Î´Öª', '', #67, #395 ) ;
#405 = CALENDAR_DATE ( 2019, 28, 10 ) ;
#406 = EDGE_CURVE ( 'NONE', #196, #124, #354, .T. ) ;
#407 = VERTEX_POINT ( 'NONE', #27 ) ;
#408 = CARTESIAN_POINT ( 'NONE',  ( -5.183999999999992200, 0.0000000000000000000, 13.00000000000000000 ) ) ;
#409 = CIRCLE ( 'NONE', #413, 8.000000000000000000 ) ;
#410 = CARTESIAN_POINT ( 'NONE',  ( -5.183999999999992200, 1.494069094959773200E-015, -12.20000000000002100 ) ) ;
#411 = CYLINDRICAL_SURFACE ( 'NONE', #221, 12.20000000000002100 ) ;
#412 = DIRECTION ( 'NONE',  ( -1.000000000000000000, -0.0000000000000000000, -0.0000000000000000000 ) ) ;
#413 = AXIS2_PLACEMENT_3D ( 'NONE', #137, #396, #272 ) ;
#414 = CARTESIAN_POINT ( 'NONE',  ( 141.1999999999999900, 0.0000000000000000000, 0.0000000000000000000 ) ) ;
#415 = ORIENTED_EDGE ( 'NONE', *, *, #162, .T. ) ;
ENDSEC;
END-ISO-10303-21;
