ISO-10303-21;
HEADER;
FILE_DESCRIPTION (( 'STEP AP203' ),
    '1' );
FILE_NAME ('WWL25-110A STEPÍ¼.STEP',
    '2019-10-28T07:59:13',
    ( '' ),
    ( '' ),
    'SwSTEP 2.0',
    'SolidWorks 2014',
    '' );
FILE_SCHEMA (( 'CONFIG_CONTROL_DESIGN' ));
ENDSEC;

DATA;
#1 = APPROVAL_DATE_TIME ( #339, #38 ) ;
#2 = CYLINDRICAL_SURFACE ( 'NONE', #83, 12.19999999999999900 ) ;
#3 = CIRCLE ( 'NONE', #367, 12.69999999999999900 ) ;
#4 =( NAMED_UNIT ( * ) PLANE_ANGLE_UNIT ( ) SI_UNIT ( $, .RADIAN. ) );
#5 = ORIENTED_EDGE ( 'NONE', *, *, #172, .F. ) ;
#6 = ORIENTED_EDGE ( 'NONE', *, *, #199, .F. ) ;
#7 = CALENDAR_DATE ( 2019, 28, 10 ) ;
#8 = PERSON_AND_ORGANIZATION_ROLE ( 'classification_officer' ) ;
#9 = ORIENTED_EDGE ( 'NONE', *, *, #364, .F. ) ;
#10 = FACE_OUTER_BOUND ( 'NONE', #137, .T. ) ;
#11 = PLANE ( 'NONE',  #239 ) ;
#12 = DATE_TIME_ROLE ( 'creation_date' ) ;
#13 = APPLICATION_PROTOCOL_DEFINITION ( 'international standard', 'config_control_design', 1994, #233 ) ;
#14 = CALENDAR_DATE ( 2019, 28, 10 ) ;
#15 = ORIENTED_EDGE ( 'NONE', *, *, #110, .F. ) ;
#16 = COORDINATED_UNIVERSAL_TIME_OFFSET ( 8, 0, .AHEAD. ) ;
#17 = AXIS2_PLACEMENT_3D ( 'NONE', #225, #36, #256 ) ;
#18 = CARTESIAN_POINT ( 'NONE',  ( 113.7000000000000200, 1.555301434917138400E-015, -12.69999999999999900 ) ) ;
#19 = DIRECTION ( 'NONE',  ( 0.0000000000000000000, 0.0000000000000000000, 1.000000000000000000 ) ) ;
#20 = COORDINATED_UNIVERSAL_TIME_OFFSET ( 8, 0, .AHEAD. ) ;
#21 = EDGE_CURVE ( 'NONE', #122, #196, #56, .T. ) ;
#22 = CARTESIAN_POINT ( 'NONE',  ( 103.2000000000000200, 0.0000000000000000000, 13.00000000000000000 ) ) ;
#23 = FACE_OUTER_BOUND ( 'NONE', #131, .T. ) ;
#24 = AXIS2_PLACEMENT_3D ( 'NONE', #322, #170, #382 ) ;
#25 = CARTESIAN_POINT ( 'NONE',  ( -2.947368421052622100, 0.0000000000000000000, 0.0000000000000000000 ) ) ;
#26 = CC_DESIGN_APPROVAL ( #38, ( #294 ) ) ;
#27 = PLANE ( 'NONE',  #219 ) ;
#28 = VERTEX_POINT ( 'NONE', #357 ) ;
#29 = DIRECTION ( 'NONE',  ( 0.0000000000000000000, 0.0000000000000000000, -1.000000000000000000 ) ) ;
#30 = DIRECTION ( 'NONE',  ( 0.0000000000000000000, 0.0000000000000000000, 1.000000000000000000 ) ) ;
#31 = ORIENTED_EDGE ( 'NONE', *, *, #222, .F. ) ;
#32 = CARTESIAN_POINT ( 'NONE',  ( 0.0000000000000000000, 0.0000000000000000000, 0.0000000000000000000 ) ) ;
#33 = CARTESIAN_POINT ( 'NONE',  ( 103.2000000000000200, 0.0000000000000000000, 8.000000000000000000 ) ) ;
#34 = ADVANCED_FACE ( 'NONE', ( #130 ), #11, .F. ) ;
#35 = EDGE_CURVE ( 'NONE', #324, #280, #263, .T. ) ;
#36 = DIRECTION ( 'NONE',  ( -1.000000000000000000, -0.0000000000000000000, -0.0000000000000000000 ) ) ;
#37 = VERTEX_POINT ( 'NONE', #22 ) ;
#38 = APPROVAL ( #269, 'Î´Ö¸¶¨' ) ;
#39 = CARTESIAN_POINT ( 'NONE',  ( 103.2000000000000000, 8.000000000000000000, 0.0000000000000000000 ) ) ;
#40 = FACE_OUTER_BOUND ( 'NONE', #278, .T. ) ;
#41 = ORIENTED_EDGE ( 'NONE', *, *, #323, .T. ) ;
#42 = CARTESIAN_POINT ( 'NONE',  ( 110.4999999999999900, 0.0000000000000000000, 12.69999999999999900 ) ) ;
#43 = PERSON_AND_ORGANIZATION_ROLE ( 'design_supplier' ) ;
#44 =( NAMED_UNIT ( * ) SI_UNIT ( $, .STERADIAN. ) SOLID_ANGLE_UNIT ( ) );
#45 = AXIS2_PLACEMENT_3D ( 'NONE', #400, #216, #78 ) ;
#46 = COORDINATED_UNIVERSAL_TIME_OFFSET ( 8, 0, .AHEAD. ) ;
#47 = CARTESIAN_POINT ( 'NONE',  ( 0.0000000000000000000, 0.0000000000000000000, 0.0000000000000000000 ) ) ;
#48 = EDGE_LOOP ( 'NONE', ( #361, #345, #41, #371 ) ) ;
#49 = CARTESIAN_POINT ( 'NONE',  ( 103.2000000000000200, 0.0000000000000000000, 0.0000000000000000000 ) ) ;
#50 = CC_DESIGN_APPROVAL ( #288, ( #244 ) ) ;
#51 = ORIENTED_EDGE ( 'NONE', *, *, #268, .T. ) ;
#52 = PERSON_AND_ORGANIZATION ( #299, #301 ) ;
#53 = EDGE_CURVE ( 'NONE', #201, #223, #257, .T. ) ;
#54 = DIRECTION ( 'NONE',  ( 0.0000000000000000000, 0.0000000000000000000, 1.000000000000000000 ) ) ;
#55 = VECTOR ( 'NONE', #178, 1000.000000000000000 ) ;
#56 = LINE ( 'NONE', #200, #375 ) ;
#57 = CARTESIAN_POINT ( 'NONE',  ( 110.4999999999999900, 0.0000000000000000000, 12.19999999999999900 ) ) ;
#58 = FACE_OUTER_BOUND ( 'NONE', #142, .T. ) ;
#59 = DIRECTION ( 'NONE',  ( -1.000000000000000000, -0.0000000000000000000, -0.0000000000000000000 ) ) ;
#60 = FACE_OUTER_BOUND ( 'NONE', #71, .T. ) ;
#61 = CARTESIAN_POINT ( 'NONE',  ( 109.7000000000000200, 0.0000000000000000000, 0.0000000000000000000 ) ) ;
#62 = AXIS2_PLACEMENT_3D ( 'NONE', #245, #336, #128 ) ;
#63 = CARTESIAN_POINT ( 'NONE',  ( -2.947368421052622100, 0.0000000000000000000, 0.0000000000000000000 ) ) ;
#64 = ORIENTED_EDGE ( 'NONE', *, *, #176, .T. ) ;
#65 = CIRCLE ( 'NONE', #203, 13.00000000000000000 ) ;
#66 = ADVANCED_FACE ( 'NONE', ( #40 ), #389, .T. ) ;
#67 = EDGE_CURVE ( 'NONE', #408, #118, #3, .T. ) ;
#68 = ADVANCED_FACE ( 'NONE', ( #182 ), #229, .T. ) ;
#69 = CARTESIAN_POINT ( 'NONE',  ( 110.4999999999999900, 1.555301434917138400E-015, -12.69999999999999900 ) ) ;
#70 = PLANE ( 'NONE',  #74 ) ;
#71 = EDGE_LOOP ( 'NONE', ( #93, #6 ) ) ;
#72 = DIRECTION ( 'NONE',  ( 0.0000000000000000000, 0.0000000000000000000, -1.000000000000000000 ) ) ;
#73 = FACE_BOUND ( 'NONE', #407, .T. ) ;
#74 = AXIS2_PLACEMENT_3D ( 'NONE', #292, #353, #189 ) ;
#75 = ORIENTED_EDGE ( 'NONE', *, *, #175, .F. ) ;
#76 = CC_DESIGN_APPROVAL ( #115, ( #394 ) ) ;
#77 = ORIENTED_EDGE ( 'NONE', *, *, #315, .T. ) ;
#78 = DIRECTION ( 'NONE',  ( 0.0000000000000000000, 0.0000000000000000000, 1.000000000000000000 ) ) ;
#79 = CALENDAR_DATE ( 2019, 28, 10 ) ;
#80 = DIRECTION ( 'NONE',  ( 0.0000000000000000000, 0.0000000000000000000, 1.000000000000000000 ) ) ;
#81 = DIRECTION ( 'NONE',  ( 0.0000000000000000000, 0.0000000000000000000, 1.000000000000000000 ) ) ;
#82 = ORIENTED_EDGE ( 'NONE', *, *, #176, .F. ) ;
#83 = AXIS2_PLACEMENT_3D ( 'NONE', #25, #209, #272 ) ;
#84 = CIRCLE ( 'NONE', #17, 12.19999999999999900 ) ;
#85 = ORIENTED_EDGE ( 'NONE', *, *, #315, .F. ) ;
#86 = DIRECTION ( 'NONE',  ( -1.000000000000000000, -0.0000000000000000000, -0.0000000000000000000 ) ) ;
#87 = AXIS2_PLACEMENT_3D ( 'NONE', #121, #309, #211 ) ;
#88 = AXIS2_PLACEMENT_3D ( 'NONE', #109, #327, #325 ) ;
#89 = CARTESIAN_POINT ( 'NONE',  ( 110.4999999999999900, 12.19999999999999900, 0.0000000000000000000 ) ) ;
#90 = ORIENTED_EDGE ( 'NONE', *, *, #194, .F. ) ;
#91 = CALENDAR_DATE ( 2019, 28, 10 ) ;
#92 = DIRECTION ( 'NONE',  ( 0.0000000000000000000, 0.0000000000000000000, 1.000000000000000000 ) ) ;
#93 = ORIENTED_EDGE ( 'NONE', *, *, #67, .F. ) ;
#94 = VECTOR ( 'NONE', #228, 1000.000000000000000 ) ;
#95 = FACE_OUTER_BOUND ( 'NONE', #124, .T. ) ;
#96 = DIRECTION ( 'NONE',  ( 0.0000000000000000000, 0.0000000000000000000, 1.000000000000000000 ) ) ;
#97 = CIRCLE ( 'NONE', #385, 13.00000000000000000 ) ;
#98 = CC_DESIGN_PERSON_AND_ORGANIZATION_ASSIGNMENT ( #277, #43, ( #394 ) ) ;
#99 = ADVANCED_FACE ( 'NONE', ( #236 ), #2, .T. ) ;
#100 = PERSON_AND_ORGANIZATION ( #299, #301 ) ;
#101 = ORIENTED_EDGE ( 'NONE', *, *, #222, .T. ) ;
#102 = APPROVAL_PERSON_ORGANIZATION ( #104, #38, #105 ) ;
#103 = ORIENTED_EDGE ( 'NONE', *, *, #410, .T. ) ;
#104 = PERSON_AND_ORGANIZATION ( #299, #301 ) ;
#105 = APPROVAL_ROLE ( '' ) ;
#106 = EDGE_LOOP ( 'NONE', ( #114, #359 ) ) ;
#107 = AXIS2_PLACEMENT_3D ( 'NONE', #165, #161, #252 ) ;
#108 = PERSON_AND_ORGANIZATION_ROLE ( 'creator' ) ;
#109 = CARTESIAN_POINT ( 'NONE',  ( 0.0000000000000000000, 0.0000000000000000000, 0.0000000000000000000 ) ) ;
#110 = EDGE_CURVE ( 'NONE', #118, #328, #126, .T. ) ;
#111 = DIRECTION ( 'NONE',  ( -1.000000000000000000, -0.0000000000000000000, -0.0000000000000000000 ) ) ;
#112 = CC_DESIGN_PERSON_AND_ORGANIZATION_ASSIGNMENT ( #343, #108, ( #294 ) ) ;
#113 = ORIENTED_EDGE ( 'NONE', *, *, #246, .T. ) ;
#114 = ORIENTED_EDGE ( 'NONE', *, *, #156, .T. ) ;
#115 = APPROVAL ( #146, 'Î´Ö¸¶¨' ) ;
#116 = CARTESIAN_POINT ( 'NONE',  ( 0.0000000000000000000, 0.0000000000000000000, 0.0000000000000000000 ) ) ;
#117 = DESIGN_CONTEXT ( 'detailed design', #233, 'design' ) ;
#118 = VERTEX_POINT ( 'NONE', #18 ) ;
#119 = CYLINDRICAL_SURFACE ( 'NONE', #208, 8.000000000000000000 ) ;
#120 = DIRECTION ( 'NONE',  ( -1.000000000000000000, -0.0000000000000000000, -0.0000000000000000000 ) ) ;
#121 = CARTESIAN_POINT ( 'NONE',  ( 113.7000000000000000, 12.69999999999999900, 0.0000000000000000000 ) ) ;
#122 = VERTEX_POINT ( 'NONE', #332 ) ;
#123 = EDGE_LOOP ( 'NONE', ( #82, #103, #267, #139 ) ) ;
#124 = EDGE_LOOP ( 'NONE', ( #266, #143, #75, #213 ) ) ;
#125 = CIRCLE ( 'NONE', #107, 12.69999999999999900 ) ;
#126 = LINE ( 'NONE', #243, #283 ) ;
#127 = AXIS2_PLACEMENT_3D ( 'NONE', #39, #261, #72 ) ;
#128 = DIRECTION ( 'NONE',  ( 0.0000000000000000000, 0.0000000000000000000, 1.000000000000000000 ) ) ;
#129 = DIRECTION ( 'NONE',  ( -1.000000000000000000, -0.0000000000000000000, -0.0000000000000000000 ) ) ;
#130 = FACE_OUTER_BOUND ( 'NONE', #164, .T. ) ;
#131 = EDGE_LOOP ( 'NONE', ( #77, #101 ) ) ;
#132 = CC_DESIGN_SECURITY_CLASSIFICATION ( #244, ( #394 ) ) ;
#133 = DIRECTION ( 'NONE',  ( -1.000000000000000000, -0.0000000000000000000, -0.0000000000000000000 ) ) ;
#134 = AXIS2_PLACEMENT_3D ( 'NONE', #184, #59, #30 ) ;
#135 = DIRECTION ( 'NONE',  ( 0.0000000000000000000, 0.0000000000000000000, 1.000000000000000000 ) ) ;
#136 = CARTESIAN_POINT ( 'NONE',  ( -2.947368421052622100, 0.0000000000000000000, 0.0000000000000000000 ) ) ;
#137 = EDGE_LOOP ( 'NONE', ( #300, #391 ) ) ;
#138 = APPROVAL_PERSON_ORGANIZATION ( #212, #288, #231 ) ;
#139 = ORIENTED_EDGE ( 'NONE', *, *, #167, .F. ) ;
#140 = CARTESIAN_POINT ( 'NONE',  ( -2.947368421052622100, 9.797174393178825700E-016, -8.000000000000000000 ) ) ;
#141 = DIRECTION ( 'NONE',  ( 0.0000000000000000000, 0.0000000000000000000, 1.000000000000000000 ) ) ;
#142 = EDGE_LOOP ( 'NONE', ( #402, #358, #85, #5 ) ) ;
#143 = ORIENTED_EDGE ( 'NONE', *, *, #21, .T. ) ;
#144 = APPROVAL_STATUS ( 'not_yet_approved' ) ;
#145 = APPROVAL_PERSON_ORGANIZATION ( #401, #115, #356 ) ;
#146 = APPROVAL_STATUS ( 'not_yet_approved' ) ;
#147 = VECTOR ( 'NONE', #262, 1000.000000000000000 ) ;
#148 = CIRCLE ( 'NONE', #62, 12.19999999999999900 ) ;
#149 = ORIENTED_EDGE ( 'NONE', *, *, #246, .F. ) ;
#150 = ORIENTED_EDGE ( 'NONE', *, *, #199, .T. ) ;
#151 = DIRECTION ( 'NONE',  ( -1.000000000000000000, -0.0000000000000000000, -0.0000000000000000000 ) ) ;
#152 = CLOSED_SHELL ( 'NONE', ( #317, #286, #66, #289, #34, #226, #350, #412, #347, #99, #192, #68, #166 ) ) ;
#153 = FACE_OUTER_BOUND ( 'NONE', #330, .T. ) ;
#154 = AXIS2_PLACEMENT_3D ( 'NONE', #162, #411, #135 ) ;
#155 = DIRECTION ( 'NONE',  ( -1.000000000000000000, -0.0000000000000000000, -0.0000000000000000000 ) ) ;
#156 = EDGE_CURVE ( 'NONE', #37, #28, #97, .T. ) ;
#157 = CARTESIAN_POINT ( 'NONE',  ( 103.2000000000000200, 0.0000000000000000000, 0.0000000000000000000 ) ) ;
#158 = DIRECTION ( 'NONE',  ( -1.000000000000000000, -0.0000000000000000000, -0.0000000000000000000 ) ) ;
#159 = APPROVAL_DATE_TIME ( #351, #115 ) ;
#160 = LINE ( 'NONE', #140, #94 ) ;
#161 = DIRECTION ( 'NONE',  ( -1.000000000000000000, -0.0000000000000000000, -0.0000000000000000000 ) ) ;
#162 = CARTESIAN_POINT ( 'NONE',  ( 103.2000000000000200, 0.0000000000000000000, 0.0000000000000000000 ) ) ;
#163 = EDGE_CURVE ( 'NONE', #311, #210, #207, .T. ) ;
#164 = EDGE_LOOP ( 'NONE', ( #369, #398 ) ) ;
#165 = CARTESIAN_POINT ( 'NONE',  ( 113.7000000000000200, 0.0000000000000000000, 0.0000000000000000000 ) ) ;
#166 = ADVANCED_FACE ( 'NONE', ( #60 ), #274, .F. ) ;
#167 = EDGE_CURVE ( 'NONE', #28, #37, #177, .T. ) ;
#168 = CALENDAR_DATE ( 2019, 28, 10 ) ;
#169 = CARTESIAN_POINT ( 'NONE',  ( -2.947368421052622100, 0.0000000000000000000, 13.00000000000000000 ) ) ;
#170 = DIRECTION ( 'NONE',  ( -1.000000000000000000, -0.0000000000000000000, -0.0000000000000000000 ) ) ;
#171 = DATE_AND_TIME ( #7, #321 ) ;
#172 = EDGE_CURVE ( 'NONE', #408, #392, #334, .T. ) ;
#173 = EDGE_LOOP ( 'NONE', ( #205, #197 ) ) ;
#174 = ADVANCED_BREP_SHAPE_REPRESENTATION ( 'WWL25-110A STEPÍ¼', ( #291, #88 ), #366 ) ;
#175 = EDGE_CURVE ( 'NONE', #320, #196, #148, .T. ) ;
#176 = EDGE_CURVE ( 'NONE', #210, #28, #365, .T. ) ;
#177 = CIRCLE ( 'NONE', #342, 13.00000000000000000 ) ;
#178 = DIRECTION ( 'NONE',  ( -1.000000000000000000, -0.0000000000000000000, -0.0000000000000000000 ) ) ;
#179 = EDGE_LOOP ( 'NONE', ( #190, #314 ) ) ;
#180 = PERSON_AND_ORGANIZATION ( #299, #301 ) ;
#181 = DIRECTION ( 'NONE',  ( -1.000000000000000000, -0.0000000000000000000, -0.0000000000000000000 ) ) ;
#182 = FACE_OUTER_BOUND ( 'NONE', #377, .T. ) ;
#183 = ORIENTED_EDGE ( 'NONE', *, *, #172, .T. ) ;
#184 = CARTESIAN_POINT ( 'NONE',  ( 110.4999999999999900, 0.0000000000000000000, 0.0000000000000000000 ) ) ;
#185 = ORIENTED_EDGE ( 'NONE', *, *, #376, .F. ) ;
#186 = DIRECTION ( 'NONE',  ( 0.0000000000000000000, 0.0000000000000000000, 1.000000000000000000 ) ) ;
#187 = AXIS2_PLACEMENT_3D ( 'NONE', #32, #250, #403 ) ;
#188 = CARTESIAN_POINT ( 'NONE',  ( -2.947368421052622100, 0.0000000000000000000, 8.000000000000000000 ) ) ;
#189 = DIRECTION ( 'NONE',  ( -0.0000000000000000000, 0.0000000000000000000, 1.000000000000000000 ) ) ;
#190 = ORIENTED_EDGE ( 'NONE', *, *, #268, .F. ) ;
#191 = VECTOR ( 'NONE', #312, 1000.000000000000000 ) ;
#192 = ADVANCED_FACE ( 'NONE', ( #73, #23 ), #27, .F. ) ;
#193 = APPLICATION_PROTOCOL_DEFINITION ( 'international standard', 'config_control_design', 1994, #295 ) ;
#194 = EDGE_CURVE ( 'NONE', #297, #122, #202, .T. ) ;
#195 = MECHANICAL_CONTEXT ( 'NONE', #295, 'mechanical' ) ;
#196 = VERTEX_POINT ( 'NONE', #337 ) ;
#197 = ORIENTED_EDGE ( 'NONE', *, *, #305, .T. ) ;
#198 = LOCAL_TIME ( 15, 59, 13.00000000000000000, #415 ) ;
#199 = EDGE_CURVE ( 'NONE', #118, #408, #125, .T. ) ;
#200 = CARTESIAN_POINT ( 'NONE',  ( -2.947368421052622100, 1.494069094959770900E-015, -12.19999999999999900 ) ) ;
#201 = VERTEX_POINT ( 'NONE', #409 ) ;
#202 = CIRCLE ( 'NONE', #45, 12.19999999999999900 ) ;
#203 = AXIS2_PLACEMENT_3D ( 'NONE', #318, #349, #383 ) ;
#204 = DIRECTION ( 'NONE',  ( -1.000000000000000000, -0.0000000000000000000, -0.0000000000000000000 ) ) ;
#205 = ORIENTED_EDGE ( 'NONE', *, *, #175, .T. ) ;
#206 = CARTESIAN_POINT ( 'NONE',  ( 113.7000000000000200, 0.0000000000000000000, 0.0000000000000000000 ) ) ;
#207 = CIRCLE ( 'NONE', #281, 13.00000000000000000 ) ;
#208 = AXIS2_PLACEMENT_3D ( 'NONE', #63, #285, #96 ) ;
#209 = DIRECTION ( 'NONE',  ( -1.000000000000000000, -0.0000000000000000000, -0.0000000000000000000 ) ) ;
#210 = VERTEX_POINT ( 'NONE', #221 ) ;
#211 = DIRECTION ( 'NONE',  ( -0.0000000000000000000, 0.0000000000000000000, 1.000000000000000000 ) ) ;
#212 = PERSON_AND_ORGANIZATION ( #299, #301 ) ;
#213 = ORIENTED_EDGE ( 'NONE', *, *, #323, .F. ) ;
#214 = APPROVAL_DATE_TIME ( #390, #288 ) ;
#215 = CARTESIAN_POINT ( 'NONE',  ( -2.947368421052622100, 0.0000000000000000000, 12.69999999999999900 ) ) ;
#216 = DIRECTION ( 'NONE',  ( -1.000000000000000000, -0.0000000000000000000, -0.0000000000000000000 ) ) ;
#217 = ORIENTED_EDGE ( 'NONE', *, *, #255, .F. ) ;
#218 = LOCAL_TIME ( 15, 59, 13.00000000000000000, #20 ) ;
#219 = AXIS2_PLACEMENT_3D ( 'NONE', #89, #306, #29 ) ;
#220 = PRODUCT_DEFINITION_SHAPE ( 'NONE', 'NONE',  #294 ) ;
#221 = CARTESIAN_POINT ( 'NONE',  ( 109.7000000000000200, 1.592040838891559100E-015, -13.00000000000000000 ) ) ;
#222 = EDGE_CURVE ( 'NONE', #328, #392, #360, .T. ) ;
#223 = VERTEX_POINT ( 'NONE', #33 ) ;
#224 = SHAPE_DEFINITION_REPRESENTATION ( #220, #174 ) ;
#225 = CARTESIAN_POINT ( 'NONE',  ( 110.4999999999999900, 0.0000000000000000000, 0.0000000000000000000 ) ) ;
#226 = ADVANCED_FACE ( 'NONE', ( #352 ), #119, .T. ) ;
#227 = CC_DESIGN_DATE_AND_TIME_ASSIGNMENT ( #171, #12, ( #294 ) ) ;
#228 = DIRECTION ( 'NONE',  ( -1.000000000000000000, -0.0000000000000000000, -0.0000000000000000000 ) ) ;
#229 = CYLINDRICAL_SURFACE ( 'NONE', #264, 12.69999999999999900 ) ;
#230 = PERSON_AND_ORGANIZATION_ROLE ( 'design_owner' ) ;
#231 = APPROVAL_ROLE ( '' ) ;
#232 = AXIS2_PLACEMENT_3D ( 'NONE', #395, #204, #303 ) ;
#233 = APPLICATION_CONTEXT ( 'configuration controlled 3d designs of mechanical parts and assemblies' ) ;
#234 = SECURITY_CLASSIFICATION_LEVEL ( 'unclassified' ) ;
#235 = AXIS2_PLACEMENT_3D ( 'NONE', #136, #133, #406 ) ;
#236 = FACE_OUTER_BOUND ( 'NONE', #48, .T. ) ;
#237 = DIRECTION ( 'NONE',  ( 0.0000000000000000000, 0.0000000000000000000, 1.000000000000000000 ) ) ;
#238 = CYLINDRICAL_SURFACE ( 'NONE', #24, 13.00000000000000000 ) ;
#239 = AXIS2_PLACEMENT_3D ( 'NONE', #47, #271, #384 ) ;
#240 = FACE_OUTER_BOUND ( 'NONE', #106, .T. ) ;
#241 = EDGE_LOOP ( 'NONE', ( #9, #396, #113, #217 ) ) ;
#242 = CYLINDRICAL_SURFACE ( 'NONE', #235, 12.19999999999999900 ) ;
#243 = CARTESIAN_POINT ( 'NONE',  ( -2.947368421052622100, 1.555301434917138400E-015, -12.69999999999999900 ) ) ;
#244 = SECURITY_CLASSIFICATION ( '', '', #234 ) ;
#245 = CARTESIAN_POINT ( 'NONE',  ( 109.7000000000000200, 0.0000000000000000000, 0.0000000000000000000 ) ) ;
#246 = EDGE_CURVE ( 'NONE', #223, #324, #387, .T. ) ;
#247 = LOCAL_TIME ( 15, 59, 13.00000000000000000, #329 ) ;
#248 = CARTESIAN_POINT ( 'NONE',  ( 0.0000000000000000000, 9.797174393178825700E-016, -8.000000000000000000 ) ) ;
#249 = CC_DESIGN_PERSON_AND_ORGANIZATION_ASSIGNMENT ( #180, #230, ( #386 ) ) ;
#250 = DIRECTION ( 'NONE',  ( -1.000000000000000000, -0.0000000000000000000, -0.0000000000000000000 ) ) ;
#251 = CARTESIAN_POINT ( 'NONE',  ( 110.4999999999999900, 0.0000000000000000000, 0.0000000000000000000 ) ) ;
#252 = DIRECTION ( 'NONE',  ( 0.0000000000000000000, 0.0000000000000000000, 1.000000000000000000 ) ) ;
#253 = LINE ( 'NONE', #169, #331 ) ;
#254 = LINE ( 'NONE', #310, #147 ) ;
#255 = EDGE_CURVE ( 'NONE', #280, #324, #282, .T. ) ;
#256 = DIRECTION ( 'NONE',  ( 0.0000000000000000000, 0.0000000000000000000, 1.000000000000000000 ) ) ;
#257 = CIRCLE ( 'NONE', #346, 8.000000000000000000 ) ;
#258 = CARTESIAN_POINT ( 'NONE',  ( 109.7000000000000200, 0.0000000000000000000, 12.19999999999999900 ) ) ;
#259 = UNCERTAINTY_MEASURE_WITH_UNIT (LENGTH_MEASURE( 1.000000000000000100E-005 ), #355, 'distance_accuracy_value', 'NONE');
#260 = CARTESIAN_POINT ( 'NONE',  ( 0.0000000000000000000, 0.0000000000000000000, 8.000000000000000000 ) ) ;
#261 = DIRECTION ( 'NONE',  ( 1.000000000000000000, 0.0000000000000000000, 0.0000000000000000000 ) ) ;
#262 = DIRECTION ( 'NONE',  ( -1.000000000000000000, -0.0000000000000000000, -0.0000000000000000000 ) ) ;
#263 = CIRCLE ( 'NONE', #326, 8.000000000000000000 ) ;
#264 = AXIS2_PLACEMENT_3D ( 'NONE', #275, #120, #19 ) ;
#265 = AXIS2_PLACEMENT_3D ( 'NONE', #251, #380, #141 ) ;
#266 = ORIENTED_EDGE ( 'NONE', *, *, #194, .T. ) ;
#267 = ORIENTED_EDGE ( 'NONE', *, *, #376, .T. ) ;
#268 = EDGE_CURVE ( 'NONE', #223, #201, #399, .T. ) ;
#269 = APPROVAL_STATUS ( 'not_yet_approved' ) ;
#270 = LOCAL_TIME ( 15, 59, 13.00000000000000000, #46 ) ;
#271 = DIRECTION ( 'NONE',  ( 1.000000000000000000, 0.0000000000000000000, 0.0000000000000000000 ) ) ;
#272 = DIRECTION ( 'NONE',  ( 0.0000000000000000000, 0.0000000000000000000, 1.000000000000000000 ) ) ;
#273 = CYLINDRICAL_SURFACE ( 'NONE', #344, 8.000000000000000000 ) ;
#274 = PLANE ( 'NONE',  #87 ) ;
#275 = CARTESIAN_POINT ( 'NONE',  ( -2.947368421052622100, 0.0000000000000000000, 0.0000000000000000000 ) ) ;
#276 = DIRECTION ( 'NONE',  ( -1.000000000000000000, -0.0000000000000000000, -0.0000000000000000000 ) ) ;
#277 = PERSON_AND_ORGANIZATION ( #299, #301 ) ;
#278 = EDGE_LOOP ( 'NONE', ( #414, #64, #290, #185 ) ) ;
#279 = CARTESIAN_POINT ( 'NONE',  ( -2.947368421052622100, 1.592040838891559100E-015, -13.00000000000000000 ) ) ;
#280 = VERTEX_POINT ( 'NONE', #248 ) ;
#281 = AXIS2_PLACEMENT_3D ( 'NONE', #340, #181, #92 ) ;
#282 = CIRCLE ( 'NONE', #187, 8.000000000000000000 ) ;
#283 = VECTOR ( 'NONE', #304, 1000.000000000000000 ) ;
#284 = AXIS2_PLACEMENT_3D ( 'NONE', #316, #129, #341 ) ;
#285 = DIRECTION ( 'NONE',  ( -1.000000000000000000, -0.0000000000000000000, -0.0000000000000000000 ) ) ;
#286 = ADVANCED_FACE ( 'NONE', ( #95 ), #242, .T. ) ;
#287 = ORIENTED_EDGE ( 'NONE', *, *, #364, .T. ) ;
#288 = APPROVAL ( #144, 'Î´Ö¸¶¨' ) ;
#289 = ADVANCED_FACE ( 'NONE', ( #153 ), #273, .T. ) ;
#290 = ORIENTED_EDGE ( 'NONE', *, *, #156, .F. ) ;
#291 = MANIFOLD_SOLID_BREP ( 'Ðý×ª1', #152 ) ;
#292 = CARTESIAN_POINT ( 'NONE',  ( 109.7000000000000000, 13.00000000000000000, 0.0000000000000000000 ) ) ;
#293 = DIRECTION ( 'NONE',  ( -1.000000000000000000, -0.0000000000000000000, -0.0000000000000000000 ) ) ;
#294 = PRODUCT_DEFINITION ( 'Î´Öª', '', #394, #117 ) ;
#295 = APPLICATION_CONTEXT ( 'configuration controlled 3d designs of mechanical parts and assemblies' ) ;
#296 = PERSON_AND_ORGANIZATION_ROLE ( 'creator' ) ;
#297 = VERTEX_POINT ( 'NONE', #57 ) ;
#298 = CIRCLE ( 'NONE', #265, 12.69999999999999900 ) ;
#299 = PERSON ( 'Î´Ö¸¶¨', 'Î´Ö¸¶¨', 'Î´Ö¸¶¨', ('Î´Ö¸¶¨'), ('Î´Ö¸¶¨'), ('Î´Ö¸¶¨') ) ;
#300 = ORIENTED_EDGE ( 'NONE', *, *, #163, .F. ) ;
#301 = ORGANIZATION ( 'Î´Ö¸¶¨', 'Î´Ö¸¶¨', '' ) ;
#302 = FACE_BOUND ( 'NONE', #179, .T. ) ;
#303 = DIRECTION ( 'NONE',  ( 0.0000000000000000000, 0.0000000000000000000, 1.000000000000000000 ) ) ;
#304 = DIRECTION ( 'NONE',  ( -1.000000000000000000, -0.0000000000000000000, -0.0000000000000000000 ) ) ;
#305 = EDGE_CURVE ( 'NONE', #196, #320, #379, .T. ) ;
#306 = DIRECTION ( 'NONE',  ( 1.000000000000000000, 0.0000000000000000000, 0.0000000000000000000 ) ) ;
#307 = CC_DESIGN_DATE_AND_TIME_ASSIGNMENT ( #378, #388, ( #244 ) ) ;
#308 = ORIENTED_EDGE ( 'NONE', *, *, #405, .F. ) ;
#309 = DIRECTION ( 'NONE',  ( -1.000000000000000000, 0.0000000000000000000, -0.0000000000000000000 ) ) ;
#310 = CARTESIAN_POINT ( 'NONE',  ( -2.947368421052622100, 0.0000000000000000000, 12.19999999999999900 ) ) ;
#311 = VERTEX_POINT ( 'NONE', #313 ) ;
#312 = DIRECTION ( 'NONE',  ( -1.000000000000000000, -0.0000000000000000000, -0.0000000000000000000 ) ) ;
#313 = CARTESIAN_POINT ( 'NONE',  ( 109.7000000000000200, 0.0000000000000000000, 13.00000000000000000 ) ) ;
#314 = ORIENTED_EDGE ( 'NONE', *, *, #53, .F. ) ;
#315 = EDGE_CURVE ( 'NONE', #392, #328, #298, .T. ) ;
#316 = CARTESIAN_POINT ( 'NONE',  ( -2.947368421052622100, 0.0000000000000000000, 0.0000000000000000000 ) ) ;
#317 = ADVANCED_FACE ( 'NONE', ( #58 ), #381, .T. ) ;
#318 = CARTESIAN_POINT ( 'NONE',  ( 109.7000000000000200, 0.0000000000000000000, 0.0000000000000000000 ) ) ;
#319 = PLANE ( 'NONE',  #127 ) ;
#320 = VERTEX_POINT ( 'NONE', #258 ) ;
#321 = LOCAL_TIME ( 15, 59, 13.00000000000000000, #16 ) ;
#322 = CARTESIAN_POINT ( 'NONE',  ( -2.947368421052622100, 0.0000000000000000000, 0.0000000000000000000 ) ) ;
#323 = EDGE_CURVE ( 'NONE', #297, #320, #254, .T. ) ;
#324 = VERTEX_POINT ( 'NONE', #260 ) ;
#325 = DIRECTION ( 'NONE',  ( 1.000000000000000000, 0.0000000000000000000, 0.0000000000000000000 ) ) ;
#326 = AXIS2_PLACEMENT_3D ( 'NONE', #116, #155, #80 ) ;
#327 = DIRECTION ( 'NONE',  ( 0.0000000000000000000, 0.0000000000000000000, 1.000000000000000000 ) ) ;
#328 = VERTEX_POINT ( 'NONE', #69 ) ;
#329 = COORDINATED_UNIVERSAL_TIME_OFFSET ( 8, 0, .AHEAD. ) ;
#330 = EDGE_LOOP ( 'NONE', ( #51, #287, #338, #149 ) ) ;
#331 = VECTOR ( 'NONE', #293, 1000.000000000000000 ) ;
#332 = CARTESIAN_POINT ( 'NONE',  ( 110.4999999999999900, 1.494069094959770900E-015, -12.19999999999999900 ) ) ;
#333 = DIRECTION ( 'NONE',  ( -1.000000000000000000, -0.0000000000000000000, -0.0000000000000000000 ) ) ;
#334 = LINE ( 'NONE', #215, #363 ) ;
#335 = DIRECTION ( 'NONE',  ( 0.0000000000000000000, 0.0000000000000000000, 1.000000000000000000 ) ) ;
#336 = DIRECTION ( 'NONE',  ( -1.000000000000000000, -0.0000000000000000000, -0.0000000000000000000 ) ) ;
#337 = CARTESIAN_POINT ( 'NONE',  ( 109.7000000000000200, 1.494069094959770900E-015, -12.19999999999999900 ) ) ;
#338 = ORIENTED_EDGE ( 'NONE', *, *, #35, .F. ) ;
#339 = DATE_AND_TIME ( #91, #218 ) ;
#340 = CARTESIAN_POINT ( 'NONE',  ( 109.7000000000000200, 0.0000000000000000000, 0.0000000000000000000 ) ) ;
#341 = DIRECTION ( 'NONE',  ( 0.0000000000000000000, 0.0000000000000000000, 1.000000000000000000 ) ) ;
#342 = AXIS2_PLACEMENT_3D ( 'NONE', #157, #276, #54 ) ;
#343 = PERSON_AND_ORGANIZATION ( #299, #301 ) ;
#344 = AXIS2_PLACEMENT_3D ( 'NONE', #372, #374, #404 ) ;
#345 = ORIENTED_EDGE ( 'NONE', *, *, #405, .T. ) ;
#346 = AXIS2_PLACEMENT_3D ( 'NONE', #49, #333, #237 ) ;
#347 = ADVANCED_FACE ( 'NONE', ( #10, #370 ), #70, .F. ) ;
#348 = CC_DESIGN_PERSON_AND_ORGANIZATION_ASSIGNMENT ( #52, #296, ( #394 ) ) ;
#349 = DIRECTION ( 'NONE',  ( -1.000000000000000000, -0.0000000000000000000, -0.0000000000000000000 ) ) ;
#350 = ADVANCED_FACE ( 'NONE', ( #302, #240 ), #319, .F. ) ;
#351 = DATE_AND_TIME ( #79, #198 ) ;
#352 = FACE_OUTER_BOUND ( 'NONE', #241, .T. ) ;
#353 = DIRECTION ( 'NONE',  ( -1.000000000000000000, 0.0000000000000000000, -0.0000000000000000000 ) ) ;
#354 = AXIS2_PLACEMENT_3D ( 'NONE', #61, #373, #186 ) ;
#355 =( LENGTH_UNIT ( ) NAMED_UNIT ( * ) SI_UNIT ( .MILLI., .METRE. ) );
#356 = APPROVAL_ROLE ( '' ) ;
#357 = CARTESIAN_POINT ( 'NONE',  ( 103.2000000000000200, 1.592040838891559100E-015, -13.00000000000000000 ) ) ;
#358 = ORIENTED_EDGE ( 'NONE', *, *, #110, .T. ) ;
#359 = ORIENTED_EDGE ( 'NONE', *, *, #167, .T. ) ;
#360 = CIRCLE ( 'NONE', #134, 12.69999999999999900 ) ;
#361 = ORIENTED_EDGE ( 'NONE', *, *, #21, .F. ) ;
#362 = CC_DESIGN_PERSON_AND_ORGANIZATION_ASSIGNMENT ( #100, #8, ( #244 ) ) ;
#363 = VECTOR ( 'NONE', #158, 1000.000000000000000 ) ;
#364 = EDGE_CURVE ( 'NONE', #201, #280, #160, .T. ) ;
#365 = LINE ( 'NONE', #279, #55 ) ;
#366 =( GEOMETRIC_REPRESENTATION_CONTEXT ( 3 ) GLOBAL_UNCERTAINTY_ASSIGNED_CONTEXT ( ( #259 ) ) GLOBAL_UNIT_ASSIGNED_CONTEXT ( ( #355, #4, #44 ) ) REPRESENTATION_CONTEXT ( 'NONE', 'WORKASPACE' ) );
#367 = AXIS2_PLACEMENT_3D ( 'NONE', #206, #151, #81 ) ;
#368 = PRODUCT_RELATED_PRODUCT_CATEGORY ( 'detail', '', ( #386 ) ) ;
#369 = ORIENTED_EDGE ( 'NONE', *, *, #35, .T. ) ;
#370 = FACE_BOUND ( 'NONE', #173, .T. ) ;
#371 = ORIENTED_EDGE ( 'NONE', *, *, #305, .F. ) ;
#372 = CARTESIAN_POINT ( 'NONE',  ( -2.947368421052622100, 0.0000000000000000000, 0.0000000000000000000 ) ) ;
#373 = DIRECTION ( 'NONE',  ( -1.000000000000000000, -0.0000000000000000000, -0.0000000000000000000 ) ) ;
#374 = DIRECTION ( 'NONE',  ( -1.000000000000000000, -0.0000000000000000000, -0.0000000000000000000 ) ) ;
#375 = VECTOR ( 'NONE', #111, 1000.000000000000000 ) ;
#376 = EDGE_CURVE ( 'NONE', #311, #37, #253, .T. ) ;
#377 = EDGE_LOOP ( 'NONE', ( #15, #150, #183, #31 ) ) ;
#378 = DATE_AND_TIME ( #168, #247 ) ;
#379 = CIRCLE ( 'NONE', #354, 12.19999999999999900 ) ;
#380 = DIRECTION ( 'NONE',  ( -1.000000000000000000, -0.0000000000000000000, -0.0000000000000000000 ) ) ;
#381 = CYLINDRICAL_SURFACE ( 'NONE', #284, 12.69999999999999900 ) ;
#382 = DIRECTION ( 'NONE',  ( 0.0000000000000000000, 0.0000000000000000000, 1.000000000000000000 ) ) ;
#383 = DIRECTION ( 'NONE',  ( 0.0000000000000000000, 0.0000000000000000000, 1.000000000000000000 ) ) ;
#384 = DIRECTION ( 'NONE',  ( 0.0000000000000000000, 0.0000000000000000000, -1.000000000000000000 ) ) ;
#385 = AXIS2_PLACEMENT_3D ( 'NONE', #397, #86, #335 ) ;
#386 = PRODUCT ( 'WWL25-110A STEPÍ¼', 'WWL25-110A STEPÍ¼', '', ( #195 ) ) ;
#387 = LINE ( 'NONE', #188, #191 ) ;
#388 = DATE_TIME_ROLE ( 'classification_date' ) ;
#389 = CYLINDRICAL_SURFACE ( 'NONE', #232, 13.00000000000000000 ) ;
#390 = DATE_AND_TIME ( #14, #270 ) ;
#391 = ORIENTED_EDGE ( 'NONE', *, *, #410, .F. ) ;
#392 = VERTEX_POINT ( 'NONE', #42 ) ;
#393 = FACE_OUTER_BOUND ( 'NONE', #123, .T. ) ;
#394 = PRODUCT_DEFINITION_FORMATION_WITH_SPECIFIED_SOURCE ( 'ÈÎºÎ', '', #386, .NOT_KNOWN. ) ;
#395 = CARTESIAN_POINT ( 'NONE',  ( -2.947368421052622100, 0.0000000000000000000, 0.0000000000000000000 ) ) ;
#396 = ORIENTED_EDGE ( 'NONE', *, *, #53, .T. ) ;
#397 = CARTESIAN_POINT ( 'NONE',  ( 103.2000000000000200, 0.0000000000000000000, 0.0000000000000000000 ) ) ;
#398 = ORIENTED_EDGE ( 'NONE', *, *, #255, .T. ) ;
#399 = CIRCLE ( 'NONE', #154, 8.000000000000000000 ) ;
#400 = CARTESIAN_POINT ( 'NONE',  ( 110.4999999999999900, 0.0000000000000000000, 0.0000000000000000000 ) ) ;
#401 = PERSON_AND_ORGANIZATION ( #299, #301 ) ;
#402 = ORIENTED_EDGE ( 'NONE', *, *, #67, .T. ) ;
#403 = DIRECTION ( 'NONE',  ( 0.0000000000000000000, 0.0000000000000000000, 1.000000000000000000 ) ) ;
#404 = DIRECTION ( 'NONE',  ( 0.0000000000000000000, 0.0000000000000000000, 1.000000000000000000 ) ) ;
#405 = EDGE_CURVE ( 'NONE', #122, #297, #84, .T. ) ;
#406 = DIRECTION ( 'NONE',  ( 0.0000000000000000000, 0.0000000000000000000, 1.000000000000000000 ) ) ;
#407 = EDGE_LOOP ( 'NONE', ( #90, #308 ) ) ;
#408 = VERTEX_POINT ( 'NONE', #413 ) ;
#409 = CARTESIAN_POINT ( 'NONE',  ( 103.2000000000000200, 9.797174393178825700E-016, -8.000000000000000000 ) ) ;
#410 = EDGE_CURVE ( 'NONE', #210, #311, #65, .T. ) ;
#411 = DIRECTION ( 'NONE',  ( -1.000000000000000000, -0.0000000000000000000, -0.0000000000000000000 ) ) ;
#412 = ADVANCED_FACE ( 'NONE', ( #393 ), #238, .T. ) ;
#413 = CARTESIAN_POINT ( 'NONE',  ( 113.7000000000000200, 0.0000000000000000000, 12.69999999999999900 ) ) ;
#414 = ORIENTED_EDGE ( 'NONE', *, *, #163, .T. ) ;
#415 = COORDINATED_UNIVERSAL_TIME_OFFSET ( 8, 0, .AHEAD. ) ;
ENDSEC;
END-ISO-10303-21;
