ISO-10303-21;
HEADER;
FILE_DESCRIPTION (( 'STEP AP203' ),
    '1' );
FILE_NAME ('WWL30-110AT STEPÍ¼.STEP',
    '2019-10-28T08:45:57',
    ( '' ),
    ( '' ),
    'SwSTEP 2.0',
    'SolidWorks 2014',
    '' );
FILE_SCHEMA (( 'CONFIG_CONTROL_DESIGN' ));
ENDSEC;

DATA;
#1 = FACE_OUTER_BOUND ( 'NONE', #223, .T. ) ;
#2 = CARTESIAN_POINT ( 'NONE',  ( 117.8999999999999800, 0.0000000000000000000, 12.19999999999999900 ) ) ;
#3 = DIRECTION ( 'NONE',  ( -1.000000000000000000, -0.0000000000000000000, -0.0000000000000000000 ) ) ;
#4 = CARTESIAN_POINT ( 'NONE',  ( 117.0999999999999800, 1.494069094959770900E-015, -12.19999999999999900 ) ) ;
#5 = ORIENTED_EDGE ( 'NONE', *, *, #164, .F. ) ;
#6 = ORIENTED_EDGE ( 'NONE', *, *, #42, .T. ) ;
#7 = ORIENTED_EDGE ( 'NONE', *, *, #346, .T. ) ;
#8 = DIRECTION ( 'NONE',  ( 1.000000000000000000, 0.0000000000000000000, 0.0000000000000000000 ) ) ;
#9 = ADVANCED_FACE ( 'NONE', ( #341 ), #126, .T. ) ;
#10 = ORIENTED_EDGE ( 'NONE', *, *, #234, .T. ) ;
#11 = COORDINATED_UNIVERSAL_TIME_OFFSET ( 8, 0, .AHEAD. ) ;
#12 = AXIS2_PLACEMENT_3D ( 'NONE', #266, #41, #141 ) ;
#13 = CYLINDRICAL_SURFACE ( 'NONE', #138, 12.19999999999999900 ) ;
#14 = EDGE_LOOP ( 'NONE', ( #108, #302 ) ) ;
#15 = ORIENTED_EDGE ( 'NONE', *, *, #285, .F. ) ;
#16 = APPROVAL_STATUS ( 'not_yet_approved' ) ;
#17 = ORIENTED_EDGE ( 'NONE', *, *, #291, .F. ) ;
#18 = AXIS2_PLACEMENT_3D ( 'NONE', #233, #168, #43 ) ;
#19 = ADVANCED_FACE ( 'NONE', ( #154 ), #368, .T. ) ;
#20 = DATE_TIME_ROLE ( 'creation_date' ) ;
#21 = EDGE_CURVE ( 'NONE', #38, #182, #160, .T. ) ;
#22 = EDGE_LOOP ( 'NONE', ( #375, #241, #64, #135 ) ) ;
#23 = APPROVAL_ROLE ( '' ) ;
#24 = LOCAL_TIME ( 16, 45, 57.00000000000000000, #11 ) ;
#25 = DATE_AND_TIME ( #361, #166 ) ;
#26 = VERTEX_POINT ( 'NONE', #280 ) ;
#27 = FACE_BOUND ( 'NONE', #187, .T. ) ;
#28 = AXIS2_PLACEMENT_3D ( 'NONE', #273, #114, #57 ) ;
#29 = CARTESIAN_POINT ( 'NONE',  ( 121.0999999999999800, 0.0000000000000000000, 12.69999999999999900 ) ) ;
#30 = COORDINATED_UNIVERSAL_TIME_OFFSET ( 8, 0, .AHEAD. ) ;
#31 = FACE_BOUND ( 'NONE', #183, .T. ) ;
#32 = DIRECTION ( 'NONE',  ( 0.0000000000000000000, 0.0000000000000000000, 1.000000000000000000 ) ) ;
#33 = ADVANCED_FACE ( 'NONE', ( #31, #331 ), #219, .F. ) ;
#34 = DIRECTION ( 'NONE',  ( -1.000000000000000000, -0.0000000000000000000, -0.0000000000000000000 ) ) ;
#35 = DIRECTION ( 'NONE',  ( -1.000000000000000000, -0.0000000000000000000, -0.0000000000000000000 ) ) ;
#36 = ORIENTED_EDGE ( 'NONE', *, *, #315, .F. ) ;
#37 = AXIS2_PLACEMENT_3D ( 'NONE', #144, #169, #142 ) ;
#38 = VERTEX_POINT ( 'NONE', #65 ) ;
#39 = DIRECTION ( 'NONE',  ( -1.000000000000000000, -0.0000000000000000000, -0.0000000000000000000 ) ) ;
#40 = ORIENTED_EDGE ( 'NONE', *, *, #42, .F. ) ;
#41 = DIRECTION ( 'NONE',  ( 1.000000000000000000, 0.0000000000000000000, 0.0000000000000000000 ) ) ;
#42 = EDGE_CURVE ( 'NONE', #76, #137, #257, .T. ) ;
#43 = DIRECTION ( 'NONE',  ( 0.0000000000000000000, 0.0000000000000000000, 1.000000000000000000 ) ) ;
#44 = CIRCLE ( 'NONE', #218, 13.00000000000000000 ) ;
#45 = DIRECTION ( 'NONE',  ( 0.0000000000000000000, 0.0000000000000000000, 1.000000000000000000 ) ) ;
#46 = DIRECTION ( 'NONE',  ( 0.0000000000000000000, 0.0000000000000000000, 1.000000000000000000 ) ) ;
#47 = CC_DESIGN_PERSON_AND_ORGANIZATION_ASSIGNMENT ( #292, #181, ( #399 ) ) ;
#48 = EDGE_CURVE ( 'NONE', #26, #140, #283, .T. ) ;
#49 = CIRCLE ( 'NONE', #389, 8.000000000000000000 ) ;
#50 = CIRCLE ( 'NONE', #216, 13.00000000000000500 ) ;
#51 = ORIENTED_EDGE ( 'NONE', *, *, #234, .F. ) ;
#52 = VECTOR ( 'NONE', #3, 1000.000000000000000 ) ;
#53 = DIRECTION ( 'NONE',  ( -1.000000000000000000, -0.0000000000000000000, -0.0000000000000000000 ) ) ;
#54 = CARTESIAN_POINT ( 'NONE',  ( 117.0999999999999800, 0.0000000000000000000, 12.19999999999999900 ) ) ;
#55 = APPROVAL_STATUS ( 'not_yet_approved' ) ;
#56 = PERSON_AND_ORGANIZATION ( #209, #372 ) ;
#57 = DIRECTION ( 'NONE',  ( 0.0000000000000000000, 0.0000000000000000000, 1.000000000000000000 ) ) ;
#58 = ORIENTED_EDGE ( 'NONE', *, *, #282, .T. ) ;
#59 = CARTESIAN_POINT ( 'NONE',  ( -2.314049586776852200, 0.0000000000000000000, 0.0000000000000000000 ) ) ;
#60 = DESIGN_CONTEXT ( 'detailed design', #304, 'design' ) ;
#61 = AXIS2_PLACEMENT_3D ( 'NONE', #243, #111, #328 ) ;
#62 = COORDINATED_UNIVERSAL_TIME_OFFSET ( 8, 0, .AHEAD. ) ;
#63 = AXIS2_PLACEMENT_3D ( 'NONE', #200, #8, #97 ) ;
#64 = ORIENTED_EDGE ( 'NONE', *, *, #73, .F. ) ;
#65 = CARTESIAN_POINT ( 'NONE',  ( 110.5999999999999800, 9.797174393178825700E-016, -8.000000000000000000 ) ) ;
#66 = CIRCLE ( 'NONE', #61, 12.69999999999999900 ) ;
#67 = CARTESIAN_POINT ( 'NONE',  ( -2.314049586776852200, 0.0000000000000000000, 13.00000000000000200 ) ) ;
#68 = DIRECTION ( 'NONE',  ( -1.000000000000000000, -0.0000000000000000000, -0.0000000000000000000 ) ) ;
#69 = ORIENTED_EDGE ( 'NONE', *, *, #214, .T. ) ;
#70 = CARTESIAN_POINT ( 'NONE',  ( -2.314049586776852200, 0.0000000000000000000, 0.0000000000000000000 ) ) ;
#71 = DIRECTION ( 'NONE',  ( -1.000000000000000000, -0.0000000000000000000, -0.0000000000000000000 ) ) ;
#72 = VERTEX_POINT ( 'NONE', #281 ) ;
#73 = EDGE_CURVE ( 'NONE', #252, #182, #403, .T. ) ;
#74 = CARTESIAN_POINT ( 'NONE',  ( 110.5999999999999800, 0.0000000000000000000, 0.0000000000000000000 ) ) ;
#75 = DIRECTION ( 'NONE',  ( -1.000000000000000000, -0.0000000000000000000, -0.0000000000000000000 ) ) ;
#76 = VERTEX_POINT ( 'NONE', #29 ) ;
#77 = AXIS2_PLACEMENT_3D ( 'NONE', #286, #162, #190 ) ;
#78 = CC_DESIGN_PERSON_AND_ORGANIZATION_ASSIGNMENT ( #215, #400, ( #317 ) ) ;
#79 = VECTOR ( 'NONE', #53, 1000.000000000000000 ) ;
#80 = CIRCLE ( 'NONE', #199, 12.69999999999999900 ) ;
#81 = AXIS2_PLACEMENT_3D ( 'NONE', #128, #386, #32 ) ;
#82 = ADVANCED_FACE ( 'NONE', ( #269, #27 ), #165, .F. ) ;
#83 = AXIS2_PLACEMENT_3D ( 'NONE', #415, #377, #289 ) ;
#84 = APPLICATION_PROTOCOL_DEFINITION ( 'international standard', 'config_control_design', 1994, #336 ) ;
#85 = VECTOR ( 'NONE', #344, 1000.000000000000000 ) ;
#86 = ORIENTED_EDGE ( 'NONE', *, *, #112, .T. ) ;
#87 = VECTOR ( 'NONE', #35, 1000.000000000000000 ) ;
#88 = ORIENTED_EDGE ( 'NONE', *, *, #112, .F. ) ;
#89 = AXIS2_PLACEMENT_3D ( 'NONE', #156, #370, #221 ) ;
#90 = EDGE_CURVE ( 'NONE', #140, #177, #185, .T. ) ;
#91 = ORIENTED_EDGE ( 'NONE', *, *, #315, .T. ) ;
#92 = DIRECTION ( 'NONE',  ( 0.0000000000000000000, 0.0000000000000000000, 1.000000000000000000 ) ) ;
#93 = CARTESIAN_POINT ( 'NONE',  ( 117.0999999999999800, 13.00000000000000500, 0.0000000000000000000 ) ) ;
#94 = DIRECTION ( 'NONE',  ( -1.000000000000000000, -0.0000000000000000000, -0.0000000000000000000 ) ) ;
#95 = CARTESIAN_POINT ( 'NONE',  ( -2.314049586776852200, 0.0000000000000000000, 0.0000000000000000000 ) ) ;
#96 = LOCAL_TIME ( 16, 45, 57.00000000000000000, #30 ) ;
#97 = DIRECTION ( 'NONE',  ( 0.0000000000000000000, 0.0000000000000000000, -1.000000000000000000 ) ) ;
#98 = CC_DESIGN_APPROVAL ( #320, ( #317 ) ) ;
#99 = ORIENTED_EDGE ( 'NONE', *, *, #90, .F. ) ;
#100 = CYLINDRICAL_SURFACE ( 'NONE', #378, 13.00000000000000200 ) ;
#101 = ADVANCED_FACE ( 'NONE', ( #325 ), #110, .T. ) ;
#102 = ORIENTED_EDGE ( 'NONE', *, *, #150, .T. ) ;
#103 = AXIS2_PLACEMENT_3D ( 'NONE', #404, #335, #405 ) ;
#104 = ORIENTED_EDGE ( 'NONE', *, *, #167, .F. ) ;
#105 = AXIS2_PLACEMENT_3D ( 'NONE', #59, #311, #278 ) ;
#106 = DIRECTION ( 'NONE',  ( 0.0000000000000000000, 0.0000000000000000000, 1.000000000000000000 ) ) ;
#107 = APPROVAL_PERSON_ORGANIZATION ( #276, #320, #211 ) ;
#108 = ORIENTED_EDGE ( 'NONE', *, *, #295, .F. ) ;
#109 = LINE ( 'NONE', #380, #87 ) ;
#110 = CYLINDRICAL_SURFACE ( 'NONE', #408, 12.69999999999999900 ) ;
#111 = DIRECTION ( 'NONE',  ( -1.000000000000000000, -0.0000000000000000000, -0.0000000000000000000 ) ) ;
#112 = EDGE_CURVE ( 'NONE', #26, #321, #365, .T. ) ;
#113 = APPROVAL_DATE_TIME ( #366, #262 ) ;
#114 = DIRECTION ( 'NONE',  ( -1.000000000000000000, -0.0000000000000000000, -0.0000000000000000000 ) ) ;
#115 = VERTEX_POINT ( 'NONE', #351 ) ;
#116 =( NAMED_UNIT ( * ) PLANE_ANGLE_UNIT ( ) SI_UNIT ( $, .RADIAN. ) );
#117 = APPLICATION_PROTOCOL_DEFINITION ( 'international standard', 'config_control_design', 1994, #304 ) ;
#118 = APPROVAL_DATE_TIME ( #337, #299 ) ;
#119 = ORIENTED_EDGE ( 'NONE', *, *, #323, .T. ) ;
#120 = CIRCLE ( 'NONE', #354, 12.19999999999999900 ) ;
#121 = CC_DESIGN_APPROVAL ( #299, ( #237 ) ) ;
#122 = DIRECTION ( 'NONE',  ( -1.000000000000000000, -0.0000000000000000000, -0.0000000000000000000 ) ) ;
#123 = DIRECTION ( 'NONE',  ( 1.000000000000000000, 0.0000000000000000000, 0.0000000000000000000 ) ) ;
#124 = LOCAL_TIME ( 16, 45, 57.00000000000000000, #62 ) ;
#125 = EDGE_LOOP ( 'NONE', ( #342, #86, #364, #99 ) ) ;
#126 = CYLINDRICAL_SURFACE ( 'NONE', #105, 8.000000000000000000 ) ;
#127 = AXIS2_PLACEMENT_3D ( 'NONE', #188, #123, #345 ) ;
#128 = CARTESIAN_POINT ( 'NONE',  ( 121.0999999999999800, 0.0000000000000000000, 0.0000000000000000000 ) ) ;
#129 = DIRECTION ( 'NONE',  ( -1.000000000000000000, -0.0000000000000000000, -0.0000000000000000000 ) ) ;
#130 = CARTESIAN_POINT ( 'NONE',  ( -2.314049586776852200, 0.0000000000000000000, 0.0000000000000000000 ) ) ;
#131 = CARTESIAN_POINT ( 'NONE',  ( -2.314049586776852200, 1.555301434917138400E-015, -12.69999999999999900 ) ) ;
#132 = COORDINATED_UNIVERSAL_TIME_OFFSET ( 8, 0, .AHEAD. ) ;
#133 = ADVANCED_FACE ( 'NONE', ( #178 ), #192, .F. ) ;
#134 = DIRECTION ( 'NONE',  ( 0.0000000000000000000, 0.0000000000000000000, 1.000000000000000000 ) ) ;
#135 = ORIENTED_EDGE ( 'NONE', *, *, #346, .F. ) ;
#136 = DIRECTION ( 'NONE',  ( -1.000000000000000000, -0.0000000000000000000, -0.0000000000000000000 ) ) ;
#137 = VERTEX_POINT ( 'NONE', #381 ) ;
#138 = AXIS2_PLACEMENT_3D ( 'NONE', #245, #274, #46 ) ;
#139 = FACE_OUTER_BOUND ( 'NONE', #263, .T. ) ;
#140 = VERTEX_POINT ( 'NONE', #2 ) ;
#141 = DIRECTION ( 'NONE',  ( 0.0000000000000000000, 0.0000000000000000000, -1.000000000000000000 ) ) ;
#142 = DIRECTION ( 'NONE',  ( 0.0000000000000000000, 0.0000000000000000000, 1.000000000000000000 ) ) ;
#143 = CALENDAR_DATE ( 2019, 28, 10 ) ;
#144 = CARTESIAN_POINT ( 'NONE',  ( 117.0999999999999800, 0.0000000000000000000, 0.0000000000000000000 ) ) ;
#145 = VECTOR ( 'NONE', #288, 1000.000000000000000 ) ;
#146 = EDGE_CURVE ( 'NONE', #306, #330, #253, .T. ) ;
#147 = ORIENTED_EDGE ( 'NONE', *, *, #73, .T. ) ;
#148 = CARTESIAN_POINT ( 'NONE',  ( -2.314049586776852200, 0.0000000000000000000, 8.000000000000000000 ) ) ;
#149 = CC_DESIGN_SECURITY_CLASSIFICATION ( #317, ( #237 ) ) ;
#150 = EDGE_CURVE ( 'NONE', #406, #72, #393, .T. ) ;
#151 = ADVANCED_FACE ( 'NONE', ( #379 ), #294, .T. ) ;
#152 = AXIS2_PLACEMENT_3D ( 'NONE', #360, #171, #45 ) ;
#153 = FACE_BOUND ( 'NONE', #385, .T. ) ;
#154 = FACE_OUTER_BOUND ( 'NONE', #279, .T. ) ;
#155 = AXIS2_PLACEMENT_3D ( 'NONE', #194, #68, #284 ) ;
#156 = CARTESIAN_POINT ( 'NONE',  ( 110.5999999999999800, 0.0000000000000000000, 0.0000000000000000000 ) ) ;
#157 = ORIENTED_EDGE ( 'NONE', *, *, #305, .F. ) ;
#158 = DIRECTION ( 'NONE',  ( -1.000000000000000000, -0.0000000000000000000, -0.0000000000000000000 ) ) ;
#159 = ORIENTED_EDGE ( 'NONE', *, *, #21, .F. ) ;
#160 = LINE ( 'NONE', #347, #85 ) ;
#161 = PRODUCT_DEFINITION ( 'Î´Öª', '', #237, #60 ) ;
#162 = DIRECTION ( 'NONE',  ( -1.000000000000000000, 0.0000000000000000000, -0.0000000000000000000 ) ) ;
#163 = ORIENTED_EDGE ( 'NONE', *, *, #205, .F. ) ;
#164 = EDGE_CURVE ( 'NONE', #137, #72, #80, .T. ) ;
#165 = PLANE ( 'NONE',  #275 ) ;
#166 = LOCAL_TIME ( 16, 45, 57.00000000000000000, #132 ) ;
#167 = EDGE_CURVE ( 'NONE', #140, #26, #414, .T. ) ;
#168 = DIRECTION ( 'NONE',  ( -1.000000000000000000, -0.0000000000000000000, -0.0000000000000000000 ) ) ;
#169 = DIRECTION ( 'NONE',  ( -1.000000000000000000, -0.0000000000000000000, -0.0000000000000000000 ) ) ;
#170 = ORIENTED_EDGE ( 'NONE', *, *, #48, .T. ) ;
#171 = DIRECTION ( 'NONE',  ( -1.000000000000000000, -0.0000000000000000000, -0.0000000000000000000 ) ) ;
#172 = UNCERTAINTY_MEASURE_WITH_UNIT (LENGTH_MEASURE( 1.000000000000000100E-005 ), #207, 'distance_accuracy_value', 'NONE');
#173 = CARTESIAN_POINT ( 'NONE',  ( 121.0999999999999800, 1.555301434917138400E-015, -12.69999999999999900 ) ) ;
#174 = PERSON_AND_ORGANIZATION_ROLE ( 'creator' ) ;
#175 = CC_DESIGN_DATE_AND_TIME_ASSIGNMENT ( #272, #20, ( #161 ) ) ;
#176 = APPROVAL_ROLE ( '' ) ;
#177 = VERTEX_POINT ( 'NONE', #54 ) ;
#178 = FACE_OUTER_BOUND ( 'NONE', #14, .T. ) ;
#179 = COORDINATED_UNIVERSAL_TIME_OFFSET ( 8, 0, .AHEAD. ) ;
#180 = CIRCLE ( 'NONE', #152, 12.19999999999999900 ) ;
#181 = PERSON_AND_ORGANIZATION_ROLE ( 'design_owner' ) ;
#182 = VERTEX_POINT ( 'NONE', #303 ) ;
#183 = EDGE_LOOP ( 'NONE', ( #235, #163 ) ) ;
#184 = CC_DESIGN_APPROVAL ( #262, ( #161 ) ) ;
#185 = LINE ( 'NONE', #350, #407 ) ;
#186 = PERSON_AND_ORGANIZATION ( #209, #372 ) ;
#187 = EDGE_LOOP ( 'NONE', ( #244, #348 ) ) ;
#188 = CARTESIAN_POINT ( 'NONE',  ( 110.5999999999999800, 8.000000000000000000, 0.0000000000000000000 ) ) ;
#189 = DIRECTION ( 'NONE',  ( 0.0000000000000000000, 0.0000000000000000000, 1.000000000000000000 ) ) ;
#190 = DIRECTION ( 'NONE',  ( -0.0000000000000000000, 0.0000000000000000000, 1.000000000000000000 ) ) ;
#191 = DIRECTION ( 'NONE',  ( 0.0000000000000000000, 0.0000000000000000000, 1.000000000000000000 ) ) ;
#192 = PLANE ( 'NONE',  #77 ) ;
#193 = LOCAL_TIME ( 16, 45, 57.00000000000000000, #179 ) ;
#194 = CARTESIAN_POINT ( 'NONE',  ( 0.0000000000000000000, 0.0000000000000000000, 0.0000000000000000000 ) ) ;
#195 = ORIENTED_EDGE ( 'NONE', *, *, #214, .F. ) ;
#196 = CIRCLE ( 'NONE', #81, 12.69999999999999900 ) ;
#197 = ORIENTED_EDGE ( 'NONE', *, *, #205, .T. ) ;
#198 = CARTESIAN_POINT ( 'NONE',  ( 0.0000000000000000000, 0.0000000000000000000, 8.000000000000000000 ) ) ;
#199 = AXIS2_PLACEMENT_3D ( 'NONE', #373, #333, #367 ) ;
#200 = CARTESIAN_POINT ( 'NONE',  ( 117.8999999999999800, 12.19999999999999900, 0.0000000000000000000 ) ) ;
#201 = AXIS2_PLACEMENT_3D ( 'NONE', #130, #94, #191 ) ;
#202 = CLOSED_SHELL ( 'NONE', ( #101, #395, #271, #151, #324, #9, #33, #227, #82, #327, #232, #19, #133 ) ) ;
#203 = CARTESIAN_POINT ( 'NONE',  ( 0.0000000000000000000, 0.0000000000000000000, 0.0000000000000000000 ) ) ;
#204 = DIRECTION ( 'NONE',  ( -1.000000000000000000, -0.0000000000000000000, -0.0000000000000000000 ) ) ;
#205 = EDGE_CURVE ( 'NONE', #38, #220, #358, .T. ) ;
#206 = ORIENTED_EDGE ( 'NONE', *, *, #90, .T. ) ;
#207 =( LENGTH_UNIT ( ) NAMED_UNIT ( * ) SI_UNIT ( .MILLI., .METRE. ) );
#208 = AXIS2_PLACEMENT_3D ( 'NONE', #95, #136, #409 ) ;
#209 = PERSON ( 'Î´Ö¸¶¨', 'Î´Ö¸¶¨', 'Î´Ö¸¶¨', ('Î´Ö¸¶¨'), ('Î´Ö¸¶¨'), ('Î´Ö¸¶¨') ) ;
#210 = DIRECTION ( 'NONE',  ( -1.000000000000000000, -0.0000000000000000000, -0.0000000000000000000 ) ) ;
#211 = APPROVAL_ROLE ( '' ) ;
#212 = ORIENTED_EDGE ( 'NONE', *, *, #150, .F. ) ;
#213 = PERSON_AND_ORGANIZATION_ROLE ( 'creator' ) ;
#214 = EDGE_CURVE ( 'NONE', #115, #306, #109, .T. ) ;
#215 = PERSON_AND_ORGANIZATION ( #209, #372 ) ;
#216 = AXIS2_PLACEMENT_3D ( 'NONE', #259, #318, #134 ) ;
#217 = VERTEX_POINT ( 'NONE', #319 ) ;
#218 = AXIS2_PLACEMENT_3D ( 'NONE', #74, #204, #322 ) ;
#219 = PLANE ( 'NONE',  #127 ) ;
#220 = VERTEX_POINT ( 'NONE', #387 ) ;
#221 = DIRECTION ( 'NONE',  ( 0.0000000000000000000, 0.0000000000000000000, 1.000000000000000000 ) ) ;
#222 = FACE_OUTER_BOUND ( 'NONE', #125, .T. ) ;
#223 = EDGE_LOOP ( 'NONE', ( #88, #170, #206, #157 ) ) ;
#224 = CARTESIAN_POINT ( 'NONE',  ( 110.5999999999999800, 0.0000000000000000000, 0.0000000000000000000 ) ) ;
#225 = ORIENTED_EDGE ( 'NONE', *, *, #355, .F. ) ;
#226 = AXIS2_PLACEMENT_3D ( 'NONE', #300, #210, #332 ) ;
#227 = ADVANCED_FACE ( 'NONE', ( #242 ), #100, .T. ) ;
#228 = CALENDAR_DATE ( 2019, 28, 10 ) ;
#229 = CIRCLE ( 'NONE', #18, 12.69999999999999900 ) ;
#230 = EDGE_LOOP ( 'NONE', ( #195, #10, #396, #384 ) ) ;
#231 = ORIENTED_EDGE ( 'NONE', *, *, #355, .T. ) ;
#232 = ADVANCED_FACE ( 'NONE', ( #153, #392 ), #388, .F. ) ;
#233 = CARTESIAN_POINT ( 'NONE',  ( 121.0999999999999800, 0.0000000000000000000, 0.0000000000000000000 ) ) ;
#234 = EDGE_CURVE ( 'NONE', #115, #217, #50, .T. ) ;
#235 = ORIENTED_EDGE ( 'NONE', *, *, #402, .F. ) ;
#236 = CIRCLE ( 'NONE', #37, 13.00000000000000500 ) ;
#237 = PRODUCT_DEFINITION_FORMATION_WITH_SPECIFIED_SOURCE ( 'ÈÎºÎ', '', #399, .NOT_KNOWN. ) ;
#238 = DIRECTION ( 'NONE',  ( -1.000000000000000000, -0.0000000000000000000, -0.0000000000000000000 ) ) ;
#239 =( GEOMETRIC_REPRESENTATION_CONTEXT ( 3 ) GLOBAL_UNCERTAINTY_ASSIGNED_CONTEXT ( ( #172 ) ) GLOBAL_UNIT_ASSIGNED_CONTEXT ( ( #207, #116, #371 ) ) REPRESENTATION_CONTEXT ( 'NONE', 'WORKASPACE' ) );
#240 = APPROVAL_PERSON_ORGANIZATION ( #287, #262, #23 ) ;
#241 = ORIENTED_EDGE ( 'NONE', *, *, #21, .T. ) ;
#242 = FACE_OUTER_BOUND ( 'NONE', #230, .T. ) ;
#243 = CARTESIAN_POINT ( 'NONE',  ( 117.8999999999999800, 0.0000000000000000000, 0.0000000000000000000 ) ) ;
#244 = ORIENTED_EDGE ( 'NONE', *, *, #248, .T. ) ;
#245 = CARTESIAN_POINT ( 'NONE',  ( -2.314049586776852200, 0.0000000000000000000, 0.0000000000000000000 ) ) ;
#246 = CC_DESIGN_PERSON_AND_ORGANIZATION_ASSIGNMENT ( #56, #213, ( #161 ) ) ;
#247 = APPROVAL_STATUS ( 'not_yet_approved' ) ;
#248 = EDGE_CURVE ( 'NONE', #177, #321, #120, .T. ) ;
#249 = VECTOR ( 'NONE', #122, 1000.000000000000000 ) ;
#250 = APPROVAL_DATE_TIME ( #307, #320 ) ;
#251 = CYLINDRICAL_SURFACE ( 'NONE', #362, 12.19999999999999900 ) ;
#252 = VERTEX_POINT ( 'NONE', #198 ) ;
#253 = CIRCLE ( 'NONE', #383, 13.00000000000000000 ) ;
#254 = CARTESIAN_POINT ( 'NONE',  ( -2.314049586776852200, 0.0000000000000000000, 0.0000000000000000000 ) ) ;
#255 = DIRECTION ( 'NONE',  ( 0.0000000000000000000, 0.0000000000000000000, 1.000000000000000000 ) ) ;
#256 = DIRECTION ( 'NONE',  ( -1.000000000000000000, 0.0000000000000000000, -0.0000000000000000000 ) ) ;
#257 = LINE ( 'NONE', #308, #249 ) ;
#258 = DIRECTION ( 'NONE',  ( -0.0000000000000000000, 0.0000000000000000000, 1.000000000000000000 ) ) ;
#259 = CARTESIAN_POINT ( 'NONE',  ( 117.0999999999999800, 0.0000000000000000000, 0.0000000000000000000 ) ) ;
#260 = DIRECTION ( 'NONE',  ( 0.0000000000000000000, 0.0000000000000000000, 1.000000000000000000 ) ) ;
#261 = CC_DESIGN_PERSON_AND_ORGANIZATION_ASSIGNMENT ( #382, #174, ( #237 ) ) ;
#262 = APPROVAL ( #55, 'Î´Ö¸¶¨' ) ;
#263 = EDGE_LOOP ( 'NONE', ( #374, #69, #298, #15 ) ) ;
#264 = VECTOR ( 'NONE', #349, 1000.000000000000000 ) ;
#265 = CARTESIAN_POINT ( 'NONE',  ( 117.0999999999999800, 0.0000000000000000000, 0.0000000000000000000 ) ) ;
#266 = CARTESIAN_POINT ( 'NONE',  ( 0.0000000000000000000, 0.0000000000000000000, 0.0000000000000000000 ) ) ;
#267 = APPROVAL_PERSON_ORGANIZATION ( #186, #299, #176 ) ;
#268 = EDGE_LOOP ( 'NONE', ( #297, #231 ) ) ;
#269 = FACE_OUTER_BOUND ( 'NONE', #293, .T. ) ;
#270 = CARTESIAN_POINT ( 'NONE',  ( -2.314049586776852200, 0.0000000000000000000, 0.0000000000000000000 ) ) ;
#271 = ADVANCED_FACE ( 'NONE', ( #139 ), #353, .T. ) ;
#272 = DATE_AND_TIME ( #357, #96 ) ;
#273 = CARTESIAN_POINT ( 'NONE',  ( 117.8999999999999800, 0.0000000000000000000, 0.0000000000000000000 ) ) ;
#274 = DIRECTION ( 'NONE',  ( -1.000000000000000000, -0.0000000000000000000, -0.0000000000000000000 ) ) ;
#275 = AXIS2_PLACEMENT_3D ( 'NONE', #93, #256, #258 ) ;
#276 = PERSON_AND_ORGANIZATION ( #209, #372 ) ;
#277 = CC_DESIGN_PERSON_AND_ORGANIZATION_ASSIGNMENT ( #296, #326, ( #237 ) ) ;
#278 = DIRECTION ( 'NONE',  ( 0.0000000000000000000, 0.0000000000000000000, 1.000000000000000000 ) ) ;
#279 = EDGE_LOOP ( 'NONE', ( #212, #58, #6, #225 ) ) ;
#280 = CARTESIAN_POINT ( 'NONE',  ( 117.8999999999999800, 1.494069094959770900E-015, -12.19999999999999900 ) ) ;
#281 = CARTESIAN_POINT ( 'NONE',  ( 117.8999999999999800, 1.555301434917138400E-015, -12.69999999999999900 ) ) ;
#282 = EDGE_CURVE ( 'NONE', #406, #76, #196, .T. ) ;
#283 = CIRCLE ( 'NONE', #83, 12.19999999999999900 ) ;
#284 = DIRECTION ( 'NONE',  ( 0.0000000000000000000, 0.0000000000000000000, 1.000000000000000000 ) ) ;
#285 = EDGE_CURVE ( 'NONE', #217, #330, #340, .T. ) ;
#286 = CARTESIAN_POINT ( 'NONE',  ( 121.0999999999999800, 12.69999999999999900, 0.0000000000000000000 ) ) ;
#287 = PERSON_AND_ORGANIZATION ( #209, #372 ) ;
#288 = DIRECTION ( 'NONE',  ( -1.000000000000000000, -0.0000000000000000000, -0.0000000000000000000 ) ) ;
#289 = DIRECTION ( 'NONE',  ( 0.0000000000000000000, 0.0000000000000000000, 1.000000000000000000 ) ) ;
#290 = PRODUCT_DEFINITION_SHAPE ( 'NONE', 'NONE',  #161 ) ;
#291 = EDGE_CURVE ( 'NONE', #217, #115, #236, .T. ) ;
#292 = PERSON_AND_ORGANIZATION ( #209, #372 ) ;
#293 = EDGE_LOOP ( 'NONE', ( #17, #51 ) ) ;
#294 = CYLINDRICAL_SURFACE ( 'NONE', #208, 8.000000000000000000 ) ;
#295 = EDGE_CURVE ( 'NONE', #76, #406, #229, .T. ) ;
#296 = PERSON_AND_ORGANIZATION ( #209, #372 ) ;
#297 = ORIENTED_EDGE ( 'NONE', *, *, #164, .T. ) ;
#298 = ORIENTED_EDGE ( 'NONE', *, *, #323, .F. ) ;
#299 = APPROVAL ( #16, 'Î´Ö¸¶¨' ) ;
#300 = CARTESIAN_POINT ( 'NONE',  ( 110.5999999999999800, 0.0000000000000000000, 0.0000000000000000000 ) ) ;
#301 = SECURITY_CLASSIFICATION_LEVEL ( 'unclassified' ) ;
#302 = ORIENTED_EDGE ( 'NONE', *, *, #282, .F. ) ;
#303 = CARTESIAN_POINT ( 'NONE',  ( 0.0000000000000000000, 9.797174393178825700E-016, -8.000000000000000000 ) ) ;
#304 = APPLICATION_CONTEXT ( 'configuration controlled 3d designs of mechanical parts and assemblies' ) ;
#305 = EDGE_CURVE ( 'NONE', #321, #177, #180, .T. ) ;
#306 = VERTEX_POINT ( 'NONE', #394 ) ;
#307 = DATE_AND_TIME ( #228, #24 ) ;
#308 = CARTESIAN_POINT ( 'NONE',  ( -2.314049586776852200, 0.0000000000000000000, 12.69999999999999900 ) ) ;
#309 = CC_DESIGN_DATE_AND_TIME_ASSIGNMENT ( #25, #363, ( #317 ) ) ;
#310 = FACE_OUTER_BOUND ( 'NONE', #397, .T. ) ;
#311 = DIRECTION ( 'NONE',  ( -1.000000000000000000, -0.0000000000000000000, -0.0000000000000000000 ) ) ;
#312 = DIRECTION ( 'NONE',  ( 0.0000000000000000000, 0.0000000000000000000, 1.000000000000000000 ) ) ;
#313 = CARTESIAN_POINT ( 'NONE',  ( -2.314049586776852200, 1.494069094959770900E-015, -12.19999999999999900 ) ) ;
#314 = LINE ( 'NONE', #148, #79 ) ;
#315 = EDGE_CURVE ( 'NONE', #182, #252, #49, .T. ) ;
#316 = ORIENTED_EDGE ( 'NONE', *, *, #295, .T. ) ;
#317 = SECURITY_CLASSIFICATION ( '', '', #301 ) ;
#318 = DIRECTION ( 'NONE',  ( -1.000000000000000000, -0.0000000000000000000, -0.0000000000000000000 ) ) ;
#319 = CARTESIAN_POINT ( 'NONE',  ( 117.0999999999999800, 0.0000000000000000000, 13.00000000000000500 ) ) ;
#320 = APPROVAL ( #247, 'Î´Ö¸¶¨' ) ;
#321 = VERTEX_POINT ( 'NONE', #4 ) ;
#322 = DIRECTION ( 'NONE',  ( 0.0000000000000000000, 0.0000000000000000000, 1.000000000000000000 ) ) ;
#323 = EDGE_CURVE ( 'NONE', #330, #306, #44, .T. ) ;
#324 = ADVANCED_FACE ( 'NONE', ( #310 ), #391, .F. ) ;
#325 = FACE_OUTER_BOUND ( 'NONE', #352, .T. ) ;
#326 = PERSON_AND_ORGANIZATION_ROLE ( 'design_supplier' ) ;
#327 = ADVANCED_FACE ( 'NONE', ( #1 ), #251, .T. ) ;
#328 = DIRECTION ( 'NONE',  ( 0.0000000000000000000, 0.0000000000000000000, 1.000000000000000000 ) ) ;
#329 = ORIENTED_EDGE ( 'NONE', *, *, #48, .F. ) ;
#330 = VERTEX_POINT ( 'NONE', #334 ) ;
#331 = FACE_OUTER_BOUND ( 'NONE', #401, .T. ) ;
#332 = DIRECTION ( 'NONE',  ( 0.0000000000000000000, 0.0000000000000000000, 1.000000000000000000 ) ) ;
#333 = DIRECTION ( 'NONE',  ( -1.000000000000000000, -0.0000000000000000000, -0.0000000000000000000 ) ) ;
#334 = CARTESIAN_POINT ( 'NONE',  ( 110.5999999999999800, 0.0000000000000000000, 13.00000000000000000 ) ) ;
#335 = DIRECTION ( 'NONE',  ( 0.0000000000000000000, 0.0000000000000000000, 1.000000000000000000 ) ) ;
#336 = APPLICATION_CONTEXT ( 'configuration controlled 3d designs of mechanical parts and assemblies' ) ;
#337 = DATE_AND_TIME ( #143, #193 ) ;
#338 = CIRCLE ( 'NONE', #226, 8.000000000000000000 ) ;
#339 = ORIENTED_EDGE ( 'NONE', *, *, #146, .T. ) ;
#340 = LINE ( 'NONE', #67, #145 ) ;
#341 = FACE_OUTER_BOUND ( 'NONE', #413, .T. ) ;
#342 = ORIENTED_EDGE ( 'NONE', *, *, #167, .T. ) ;
#343 = PRODUCT_RELATED_PRODUCT_CATEGORY ( 'detail', '', ( #399 ) ) ;
#344 = DIRECTION ( 'NONE',  ( -1.000000000000000000, -0.0000000000000000000, -0.0000000000000000000 ) ) ;
#345 = DIRECTION ( 'NONE',  ( 0.0000000000000000000, 0.0000000000000000000, -1.000000000000000000 ) ) ;
#346 = EDGE_CURVE ( 'NONE', #220, #252, #314, .T. ) ;
#347 = CARTESIAN_POINT ( 'NONE',  ( -2.314049586776852200, 9.797174393178825700E-016, -8.000000000000000000 ) ) ;
#348 = ORIENTED_EDGE ( 'NONE', *, *, #305, .T. ) ;
#349 = DIRECTION ( 'NONE',  ( -1.000000000000000000, -0.0000000000000000000, -0.0000000000000000000 ) ) ;
#350 = CARTESIAN_POINT ( 'NONE',  ( -2.314049586776852200, 0.0000000000000000000, 12.19999999999999900 ) ) ;
#351 = CARTESIAN_POINT ( 'NONE',  ( 117.0999999999999800, 1.592040838891559700E-015, -13.00000000000000500 ) ) ;
#352 = EDGE_LOOP ( 'NONE', ( #316, #102, #5, #40 ) ) ;
#353 = CYLINDRICAL_SURFACE ( 'NONE', #201, 13.00000000000000200 ) ;
#354 = AXIS2_PLACEMENT_3D ( 'NONE', #265, #71, #312 ) ;
#355 = EDGE_CURVE ( 'NONE', #72, #137, #66, .T. ) ;
#356 = MANIFOLD_SOLID_BREP ( 'Ðý×ª1', #202 ) ;
#357 = CALENDAR_DATE ( 2019, 28, 10 ) ;
#358 = CIRCLE ( 'NONE', #89, 8.000000000000000000 ) ;
#359 = AXIS2_PLACEMENT_3D ( 'NONE', #254, #412, #255 ) ;
#360 = CARTESIAN_POINT ( 'NONE',  ( 117.0999999999999800, 0.0000000000000000000, 0.0000000000000000000 ) ) ;
#361 = CALENDAR_DATE ( 2019, 28, 10 ) ;
#362 = AXIS2_PLACEMENT_3D ( 'NONE', #270, #238, #398 ) ;
#363 = DATE_TIME_ROLE ( 'classification_date' ) ;
#364 = ORIENTED_EDGE ( 'NONE', *, *, #248, .F. ) ;
#365 = LINE ( 'NONE', #313, #264 ) ;
#366 = DATE_AND_TIME ( #390, #124 ) ;
#367 = DIRECTION ( 'NONE',  ( 0.0000000000000000000, 0.0000000000000000000, 1.000000000000000000 ) ) ;
#368 = CYLINDRICAL_SURFACE ( 'NONE', #359, 12.69999999999999900 ) ;
#369 = MECHANICAL_CONTEXT ( 'NONE', #336, 'mechanical' ) ;
#370 = DIRECTION ( 'NONE',  ( -1.000000000000000000, -0.0000000000000000000, -0.0000000000000000000 ) ) ;
#371 =( NAMED_UNIT ( * ) SI_UNIT ( $, .STERADIAN. ) SOLID_ANGLE_UNIT ( ) );
#372 = ORGANIZATION ( 'Î´Ö¸¶¨', 'Î´Ö¸¶¨', '' ) ;
#373 = CARTESIAN_POINT ( 'NONE',  ( 117.8999999999999800, 0.0000000000000000000, 0.0000000000000000000 ) ) ;
#374 = ORIENTED_EDGE ( 'NONE', *, *, #291, .T. ) ;
#375 = ORIENTED_EDGE ( 'NONE', *, *, #402, .T. ) ;
#376 = CARTESIAN_POINT ( 'NONE',  ( -2.314049586776852200, 0.0000000000000000000, 0.0000000000000000000 ) ) ;
#377 = DIRECTION ( 'NONE',  ( -1.000000000000000000, -0.0000000000000000000, -0.0000000000000000000 ) ) ;
#378 = AXIS2_PLACEMENT_3D ( 'NONE', #70, #39, #189 ) ;
#379 = FACE_OUTER_BOUND ( 'NONE', #22, .T. ) ;
#380 = CARTESIAN_POINT ( 'NONE',  ( -2.314049586776852200, 1.592040838891559300E-015, -13.00000000000000200 ) ) ;
#381 = CARTESIAN_POINT ( 'NONE',  ( 117.8999999999999800, 0.0000000000000000000, 12.69999999999999900 ) ) ;
#382 = PERSON_AND_ORGANIZATION ( #209, #372 ) ;
#383 = AXIS2_PLACEMENT_3D ( 'NONE', #224, #34, #260 ) ;
#384 = ORIENTED_EDGE ( 'NONE', *, *, #146, .F. ) ;
#385 = EDGE_LOOP ( 'NONE', ( #104, #329 ) ) ;
#386 = DIRECTION ( 'NONE',  ( -1.000000000000000000, -0.0000000000000000000, -0.0000000000000000000 ) ) ;
#387 = CARTESIAN_POINT ( 'NONE',  ( 110.5999999999999800, 0.0000000000000000000, 8.000000000000000000 ) ) ;
#388 = PLANE ( 'NONE',  #63 ) ;
#389 = AXIS2_PLACEMENT_3D ( 'NONE', #203, #75, #106 ) ;
#390 = CALENDAR_DATE ( 2019, 28, 10 ) ;
#391 = PLANE ( 'NONE',  #12 ) ;
#392 = FACE_OUTER_BOUND ( 'NONE', #268, .T. ) ;
#393 = LINE ( 'NONE', #131, #52 ) ;
#394 = CARTESIAN_POINT ( 'NONE',  ( 110.5999999999999800, 1.592040838891559100E-015, -13.00000000000000000 ) ) ;
#395 = ADVANCED_FACE ( 'NONE', ( #222 ), #13, .T. ) ;
#396 = ORIENTED_EDGE ( 'NONE', *, *, #285, .T. ) ;
#397 = EDGE_LOOP ( 'NONE', ( #147, #91 ) ) ;
#398 = DIRECTION ( 'NONE',  ( 0.0000000000000000000, 0.0000000000000000000, 1.000000000000000000 ) ) ;
#399 = PRODUCT ( 'WWL30-110AT STEPÍ¼', 'WWL30-110AT STEPÍ¼', '', ( #369 ) ) ;
#400 = PERSON_AND_ORGANIZATION_ROLE ( 'classification_officer' ) ;
#401 = EDGE_LOOP ( 'NONE', ( #119, #339 ) ) ;
#402 = EDGE_CURVE ( 'NONE', #220, #38, #338, .T. ) ;
#403 = CIRCLE ( 'NONE', #155, 8.000000000000000000 ) ;
#404 = CARTESIAN_POINT ( 'NONE',  ( 0.0000000000000000000, 0.0000000000000000000, 0.0000000000000000000 ) ) ;
#405 = DIRECTION ( 'NONE',  ( 1.000000000000000000, 0.0000000000000000000, 0.0000000000000000000 ) ) ;
#406 = VERTEX_POINT ( 'NONE', #173 ) ;
#407 = VECTOR ( 'NONE', #129, 1000.000000000000000 ) ;
#408 = AXIS2_PLACEMENT_3D ( 'NONE', #376, #158, #92 ) ;
#409 = DIRECTION ( 'NONE',  ( 0.0000000000000000000, 0.0000000000000000000, 1.000000000000000000 ) ) ;
#410 = ADVANCED_BREP_SHAPE_REPRESENTATION ( 'WWL30-110AT STEPÍ¼', ( #356, #103 ), #239 ) ;
#411 = SHAPE_DEFINITION_REPRESENTATION ( #290, #410 ) ;
#412 = DIRECTION ( 'NONE',  ( -1.000000000000000000, -0.0000000000000000000, -0.0000000000000000000 ) ) ;
#413 = EDGE_LOOP ( 'NONE', ( #159, #197, #7, #36 ) ) ;
#414 = CIRCLE ( 'NONE', #28, 12.19999999999999900 ) ;
#415 = CARTESIAN_POINT ( 'NONE',  ( 117.8999999999999800, 0.0000000000000000000, 0.0000000000000000000 ) ) ;
ENDSEC;
END-ISO-10303-21;
