ISO-10303-21;
HEADER;
FILE_DESCRIPTION (( 'STEP AP203' ),
    '1' );
FILE_NAME ('WWL30-150AT STEPÍ¼.STEP',
    '2019-10-28T08:51:40',
    ( '' ),
    ( '' ),
    'SwSTEP 2.0',
    'SolidWorks 2014',
    '' );
FILE_SCHEMA (( 'CONFIG_CONTROL_DESIGN' ));
ENDSEC;

DATA;
#1 = VECTOR ( 'NONE', #42, 1000.000000000000000 ) ;
#2 = CARTESIAN_POINT ( 'NONE',  ( 129.5999999999999700, 0.0000000000000000000, 0.0000000000000000000 ) ) ;
#3 = CARTESIAN_POINT ( 'NONE',  ( 122.3000000000000000, 9.797174393178825700E-016, -8.000000000000000000 ) ) ;
#4 = APPROVAL_PERSON_ORGANIZATION ( #218, #174, #91 ) ;
#5 = DIRECTION ( 'NONE',  ( 0.0000000000000000000, 0.0000000000000000000, 1.000000000000000000 ) ) ;
#6 = PERSON_AND_ORGANIZATION ( #315, #62 ) ;
#7 = VECTOR ( 'NONE', #182, 1000.000000000000000 ) ;
#8 = CARTESIAN_POINT ( 'NONE',  ( 0.0000000000000000000, 0.0000000000000000000, 0.0000000000000000000 ) ) ;
#9 = AXIS2_PLACEMENT_3D ( 'NONE', #117, #373, #411 ) ;
#10 = CC_DESIGN_DATE_AND_TIME_ASSIGNMENT ( #225, #93, ( #322 ) ) ;
#11 = APPROVAL_DATE_TIME ( #317, #304 ) ;
#12 = DIRECTION ( 'NONE',  ( 0.0000000000000000000, 0.0000000000000000000, -1.000000000000000000 ) ) ;
#13 = ORIENTED_EDGE ( 'NONE', *, *, #238, .F. ) ;
#14 = DIRECTION ( 'NONE',  ( -1.000000000000000000, -0.0000000000000000000, -0.0000000000000000000 ) ) ;
#15 = CIRCLE ( 'NONE', #220, 12.69999999999999900 ) ;
#16 = CARTESIAN_POINT ( 'NONE',  ( -2.819047619047617000, 0.0000000000000000000, 0.0000000000000000000 ) ) ;
#17 = VECTOR ( 'NONE', #150, 1000.000000000000000 ) ;
#18 = DIRECTION ( 'NONE',  ( -1.000000000000000000, -0.0000000000000000000, -0.0000000000000000000 ) ) ;
#19 = EDGE_LOOP ( 'NONE', ( #115, #361, #290, #188 ) ) ;
#20 = AXIS2_PLACEMENT_3D ( 'NONE', #98, #323, #5 ) ;
#21 = EDGE_CURVE ( 'NONE', #252, #68, #388, .T. ) ;
#22 = CARTESIAN_POINT ( 'NONE',  ( -2.819047619047617000, 0.0000000000000000000, 0.0000000000000000000 ) ) ;
#23 = ADVANCED_FACE ( 'NONE', ( #81 ), #65, .F. ) ;
#24 = CIRCLE ( 'NONE', #118, 8.000000000000000000 ) ;
#25 = VERTEX_POINT ( 'NONE', #190 ) ;
#26 = DIRECTION ( 'NONE',  ( -1.000000000000000000, -0.0000000000000000000, -0.0000000000000000000 ) ) ;
#27 = AXIS2_PLACEMENT_3D ( 'NONE', #22, #318, #343 ) ;
#28 = VECTOR ( 'NONE', #211, 1000.000000000000000 ) ;
#29 = ADVANCED_FACE ( 'NONE', ( #387 ), #217, .T. ) ;
#30 = ORIENTED_EDGE ( 'NONE', *, *, #239, .T. ) ;
#31 = CARTESIAN_POINT ( 'NONE',  ( 128.7999999999999800, 1.494069094959770900E-015, -12.19999999999999900 ) ) ;
#32 = EDGE_CURVE ( 'NONE', #214, #25, #288, .T. ) ;
#33 = APPROVAL_DATE_TIME ( #375, #90 ) ;
#34 = DATE_AND_TIME ( #307, #46 ) ;
#35 = VERTEX_POINT ( 'NONE', #319 ) ;
#36 = AXIS2_PLACEMENT_3D ( 'NONE', #396, #230, #105 ) ;
#37 =( NAMED_UNIT ( * ) PLANE_ANGLE_UNIT ( ) SI_UNIT ( $, .RADIAN. ) );
#38 =( NAMED_UNIT ( * ) SI_UNIT ( $, .STERADIAN. ) SOLID_ANGLE_UNIT ( ) );
#39 = COORDINATED_UNIVERSAL_TIME_OFFSET ( 8, 0, .AHEAD. ) ;
#40 = CIRCLE ( 'NONE', #36, 8.000000000000000000 ) ;
#41 = ORIENTED_EDGE ( 'NONE', *, *, #122, .T. ) ;
#42 = DIRECTION ( 'NONE',  ( -1.000000000000000000, -0.0000000000000000000, -0.0000000000000000000 ) ) ;
#43 = CARTESIAN_POINT ( 'NONE',  ( -2.819047619047617000, 0.0000000000000000000, 12.19999999999999900 ) ) ;
#44 = PERSON_AND_ORGANIZATION ( #315, #62 ) ;
#45 = ORIENTED_EDGE ( 'NONE', *, *, #21, .T. ) ;
#46 = LOCAL_TIME ( 16, 51, 40.00000000000000000, #170 ) ;
#47 = EDGE_LOOP ( 'NONE', ( #101, #266, #284, #308 ) ) ;
#48 = CARTESIAN_POINT ( 'NONE',  ( 129.5999999999999700, 0.0000000000000000000, 0.0000000000000000000 ) ) ;
#49 = CARTESIAN_POINT ( 'NONE',  ( 129.5999999999999700, 0.0000000000000000000, 12.69999999999999900 ) ) ;
#50 = EDGE_CURVE ( 'NONE', #358, #214, #130, .T. ) ;
#51 = CYLINDRICAL_SURFACE ( 'NONE', #96, 8.000000000000000000 ) ;
#52 = ORIENTED_EDGE ( 'NONE', *, *, #32, .F. ) ;
#53 = EDGE_LOOP ( 'NONE', ( #257, #131, #400, #52 ) ) ;
#54 = SECURITY_CLASSIFICATION_LEVEL ( 'unclassified' ) ;
#55 = CARTESIAN_POINT ( 'NONE',  ( 129.5999999999999700, 0.0000000000000000000, 12.19999999999999900 ) ) ;
#56 = PERSON_AND_ORGANIZATION_ROLE ( 'creator' ) ;
#57 = EDGE_CURVE ( 'NONE', #183, #89, #15, .T. ) ;
#58 = COORDINATED_UNIVERSAL_TIME_OFFSET ( 8, 0, .AHEAD. ) ;
#59 = FACE_BOUND ( 'NONE', #73, .T. ) ;
#60 = EDGE_LOOP ( 'NONE', ( #41, #326 ) ) ;
#61 = AXIS2_PLACEMENT_3D ( 'NONE', #200, #359, #173 ) ;
#62 = ORGANIZATION ( 'Î´Ö¸¶¨', 'Î´Ö¸¶¨', '' ) ;
#63 = CIRCLE ( 'NONE', #415, 12.19999999999999900 ) ;
#64 = ORIENTED_EDGE ( 'NONE', *, *, #239, .F. ) ;
#65 = PLANE ( 'NONE',  #386 ) ;
#66 = AXIS2_PLACEMENT_3D ( 'NONE', #313, #154, #407 ) ;
#67 = CARTESIAN_POINT ( 'NONE',  ( 128.7999999999999800, 13.00000000000000000, 0.0000000000000000000 ) ) ;
#68 = VERTEX_POINT ( 'NONE', #55 ) ;
#69 = DIRECTION ( 'NONE',  ( -1.000000000000000000, -0.0000000000000000000, -0.0000000000000000000 ) ) ;
#70 = APPLICATION_CONTEXT ( 'configuration controlled 3d designs of mechanical parts and assemblies' ) ;
#71 = FACE_OUTER_BOUND ( 'NONE', #152, .T. ) ;
#72 = MECHANICAL_CONTEXT ( 'NONE', #70, 'mechanical' ) ;
#73 = EDGE_LOOP ( 'NONE', ( #125, #116 ) ) ;
#74 = CARTESIAN_POINT ( 'NONE',  ( 122.3000000000000000, 0.0000000000000000000, 0.0000000000000000000 ) ) ;
#75 = MANIFOLD_SOLID_BREP ( 'Ðý×ª1', #94 ) ;
#76 = AXIS2_PLACEMENT_3D ( 'NONE', #102, #391, #221 ) ;
#77 = CC_DESIGN_PERSON_AND_ORGANIZATION_ASSIGNMENT ( #380, #409, ( #368 ) ) ;
#78 = LOCAL_TIME ( 16, 51, 40.00000000000000000, #164 ) ;
#79 = ORIENTED_EDGE ( 'NONE', *, *, #145, .T. ) ;
#80 = CARTESIAN_POINT ( 'NONE',  ( 132.7999999999999800, 0.0000000000000000000, 0.0000000000000000000 ) ) ;
#81 = FACE_OUTER_BOUND ( 'NONE', #321, .T. ) ;
#82 = FACE_OUTER_BOUND ( 'NONE', #19, .T. ) ;
#83 = CARTESIAN_POINT ( 'NONE',  ( 0.0000000000000000000, 9.797174393178825700E-016, -8.000000000000000000 ) ) ;
#84 = ADVANCED_BREP_SHAPE_REPRESENTATION ( 'WWL30-150AT STEPÍ¼', ( #75, #234 ), #298 ) ;
#85 = APPROVAL_ROLE ( '' ) ;
#86 = PLANE ( 'NONE',  #126 ) ;
#87 = PRODUCT ( 'WWL30-150AT STEPÍ¼', 'WWL30-150AT STEPÍ¼', '', ( #72 ) ) ;
#88 = APPROVAL_DATE_TIME ( #100, #174 ) ;
#89 = VERTEX_POINT ( 'NONE', #49 ) ;
#90 = APPROVAL ( #210, 'Î´Ö¸¶¨' ) ;
#91 = APPROVAL_ROLE ( '' ) ;
#92 = CARTESIAN_POINT ( 'NONE',  ( 122.3000000000000000, 0.0000000000000000000, 0.0000000000000000000 ) ) ;
#93 = DATE_TIME_ROLE ( 'creation_date' ) ;
#94 = CLOSED_SHELL ( 'NONE', ( #167, #222, #99, #195, #132, #385, #254, #286, #350, #29, #216, #163, #23 ) ) ;
#95 = DIRECTION ( 'NONE',  ( -1.000000000000000000, -0.0000000000000000000, -0.0000000000000000000 ) ) ;
#96 = AXIS2_PLACEMENT_3D ( 'NONE', #186, #345, #162 ) ;
#97 = CC_DESIGN_PERSON_AND_ORGANIZATION_ASSIGNMENT ( #335, #253, ( #181 ) ) ;
#98 = CARTESIAN_POINT ( 'NONE',  ( 0.0000000000000000000, 0.0000000000000000000, 0.0000000000000000000 ) ) ;
#99 = ADVANCED_FACE ( 'NONE', ( #264 ), #226, .T. ) ;
#100 = DATE_AND_TIME ( #259, #119 ) ;
#101 = ORIENTED_EDGE ( 'NONE', *, *, #103, .F. ) ;
#102 = CARTESIAN_POINT ( 'NONE',  ( -2.819047619047617000, 0.0000000000000000000, 0.0000000000000000000 ) ) ;
#103 = EDGE_CURVE ( 'NONE', #358, #120, #320, .T. ) ;
#104 = CIRCLE ( 'NONE', #261, 13.00000000000000000 ) ;
#105 = DIRECTION ( 'NONE',  ( 0.0000000000000000000, 0.0000000000000000000, 1.000000000000000000 ) ) ;
#106 = ORIENTED_EDGE ( 'NONE', *, *, #342, .T. ) ;
#107 = PERSON_AND_ORGANIZATION_ROLE ( 'design_owner' ) ;
#108 = CARTESIAN_POINT ( 'NONE',  ( 128.7999999999999800, 1.592040838891559100E-015, -13.00000000000000000 ) ) ;
#109 = FACE_OUTER_BOUND ( 'NONE', #372, .T. ) ;
#110 = ORIENTED_EDGE ( 'NONE', *, *, #212, .T. ) ;
#111 = CC_DESIGN_PERSON_AND_ORGANIZATION_ASSIGNMENT ( #44, #250, ( #368 ) ) ;
#112 = UNCERTAINTY_MEASURE_WITH_UNIT (LENGTH_MEASURE( 1.000000000000000100E-005 ), #231, 'distance_accuracy_value', 'NONE');
#113 = CARTESIAN_POINT ( 'NONE',  ( 128.7999999999999800, 0.0000000000000000000, 13.00000000000000000 ) ) ;
#114 = CIRCLE ( 'NONE', #66, 12.69999999999999900 ) ;
#115 = ORIENTED_EDGE ( 'NONE', *, *, #258, .F. ) ;
#116 = ORIENTED_EDGE ( 'NONE', *, *, #379, .T. ) ;
#117 = CARTESIAN_POINT ( 'NONE',  ( 122.3000000000000000, 0.0000000000000000000, 0.0000000000000000000 ) ) ;
#118 = AXIS2_PLACEMENT_3D ( 'NONE', #367, #178, #405 ) ;
#119 = LOCAL_TIME ( 16, 51, 40.00000000000000000, #177 ) ;
#120 = VERTEX_POINT ( 'NONE', #83 ) ;
#121 = DIRECTION ( 'NONE',  ( 0.0000000000000000000, 0.0000000000000000000, 1.000000000000000000 ) ) ;
#122 = EDGE_CURVE ( 'NONE', #89, #183, #114, .T. ) ;
#123 = DIRECTION ( 'NONE',  ( 0.0000000000000000000, 0.0000000000000000000, 1.000000000000000000 ) ) ;
#124 = FACE_OUTER_BOUND ( 'NONE', #314, .T. ) ;
#125 = ORIENTED_EDGE ( 'NONE', *, *, #238, .T. ) ;
#126 = AXIS2_PLACEMENT_3D ( 'NONE', #377, #157, #209 ) ;
#127 = DIRECTION ( 'NONE',  ( -1.000000000000000000, 0.0000000000000000000, -0.0000000000000000000 ) ) ;
#128 = CALENDAR_DATE ( 2019, 28, 10 ) ;
#129 = LINE ( 'NONE', #341, #28 ) ;
#130 = CIRCLE ( 'NONE', #9, 8.000000000000000000 ) ;
#131 = ORIENTED_EDGE ( 'NONE', *, *, #103, .T. ) ;
#132 = ADVANCED_FACE ( 'NONE', ( #109 ), #86, .F. ) ;
#133 = DIRECTION ( 'NONE',  ( -1.000000000000000000, -0.0000000000000000000, -0.0000000000000000000 ) ) ;
#134 = EDGE_CURVE ( 'NONE', #383, #89, #208, .T. ) ;
#135 = CC_DESIGN_APPROVAL ( #174, ( #181 ) ) ;
#136 = DIRECTION ( 'NONE',  ( -1.000000000000000000, 0.0000000000000000000, -0.0000000000000000000 ) ) ;
#137 = SHAPE_DEFINITION_REPRESENTATION ( #412, #84 ) ;
#138 = ORIENTED_EDGE ( 'NONE', *, *, #155, .T. ) ;
#139 = CARTESIAN_POINT ( 'NONE',  ( 129.5999999999999700, 12.19999999999999900, 0.0000000000000000000 ) ) ;
#140 = LINE ( 'NONE', #374, #338 ) ;
#141 = AXIS2_PLACEMENT_3D ( 'NONE', #74, #363, #142 ) ;
#142 = DIRECTION ( 'NONE',  ( 0.0000000000000000000, 0.0000000000000000000, 1.000000000000000000 ) ) ;
#143 = APPROVAL_PERSON_ORGANIZATION ( #159, #90, #85 ) ;
#144 = CYLINDRICAL_SURFACE ( 'NONE', #27, 12.69999999999999900 ) ;
#145 = EDGE_CURVE ( 'NONE', #334, #390, #140, .T. ) ;
#146 = ORIENTED_EDGE ( 'NONE', *, *, #196, .T. ) ;
#147 = CARTESIAN_POINT ( 'NONE',  ( 122.3000000000000000, 0.0000000000000000000, 8.000000000000000000 ) ) ;
#148 = EDGE_CURVE ( 'NONE', #68, #252, #382, .T. ) ;
#149 = CC_DESIGN_DATE_AND_TIME_ASSIGNMENT ( #34, #283, ( #181 ) ) ;
#150 = DIRECTION ( 'NONE',  ( -1.000000000000000000, -0.0000000000000000000, -0.0000000000000000000 ) ) ;
#151 = FACE_OUTER_BOUND ( 'NONE', #47, .T. ) ;
#152 = EDGE_LOOP ( 'NONE', ( #404, #245 ) ) ;
#153 = ORIENTED_EDGE ( 'NONE', *, *, #212, .F. ) ;
#154 = DIRECTION ( 'NONE',  ( -1.000000000000000000, -0.0000000000000000000, -0.0000000000000000000 ) ) ;
#155 = EDGE_CURVE ( 'NONE', #252, #353, #129, .T. ) ;
#156 = APPROVAL_STATUS ( 'not_yet_approved' ) ;
#157 = DIRECTION ( 'NONE',  ( 1.000000000000000000, 0.0000000000000000000, 0.0000000000000000000 ) ) ;
#158 = AXIS2_PLACEMENT_3D ( 'NONE', #16, #279, #280 ) ;
#159 = PERSON_AND_ORGANIZATION ( #315, #62 ) ;
#160 = PRODUCT_RELATED_PRODUCT_CATEGORY ( 'detail', '', ( #87 ) ) ;
#161 = ORIENTED_EDGE ( 'NONE', *, *, #134, .F. ) ;
#162 = DIRECTION ( 'NONE',  ( 0.0000000000000000000, 0.0000000000000000000, 1.000000000000000000 ) ) ;
#163 = ADVANCED_FACE ( 'NONE', ( #82 ), #397, .T. ) ;
#164 = COORDINATED_UNIVERSAL_TIME_OFFSET ( 8, 0, .AHEAD. ) ;
#165 = CIRCLE ( 'NONE', #141, 13.00000000000000000 ) ;
#166 = DIRECTION ( 'NONE',  ( -1.000000000000000000, -0.0000000000000000000, -0.0000000000000000000 ) ) ;
#167 = ADVANCED_FACE ( 'NONE', ( #287 ), #144, .T. ) ;
#168 = AXIS2_PLACEMENT_3D ( 'NONE', #139, #300, #12 ) ;
#169 = ORIENTED_EDGE ( 'NONE', *, *, #401, .F. ) ;
#170 = COORDINATED_UNIVERSAL_TIME_OFFSET ( 8, 0, .AHEAD. ) ;
#171 = ORIENTED_EDGE ( 'NONE', *, *, #356, .T. ) ;
#172 = CIRCLE ( 'NONE', #203, 13.00000000000000000 ) ;
#173 = DIRECTION ( 'NONE',  ( 0.0000000000000000000, 0.0000000000000000000, 1.000000000000000000 ) ) ;
#174 = APPROVAL ( #344, 'Î´Ö¸¶¨' ) ;
#175 = EDGE_CURVE ( 'NONE', #390, #35, #104, .T. ) ;
#176 = AXIS2_PLACEMENT_3D ( 'NONE', #410, #213, #123 ) ;
#177 = COORDINATED_UNIVERSAL_TIME_OFFSET ( 8, 0, .AHEAD. ) ;
#178 = DIRECTION ( 'NONE',  ( -1.000000000000000000, -0.0000000000000000000, -0.0000000000000000000 ) ) ;
#179 = FACE_OUTER_BOUND ( 'NONE', #236, .T. ) ;
#180 = DIRECTION ( 'NONE',  ( -1.000000000000000000, -0.0000000000000000000, -0.0000000000000000000 ) ) ;
#181 = SECURITY_CLASSIFICATION ( '', '', #54 ) ;
#182 = DIRECTION ( 'NONE',  ( -1.000000000000000000, -0.0000000000000000000, -0.0000000000000000000 ) ) ;
#183 = VERTEX_POINT ( 'NONE', #185 ) ;
#184 = APPLICATION_CONTEXT ( 'configuration controlled 3d designs of mechanical parts and assemblies' ) ;
#185 = CARTESIAN_POINT ( 'NONE',  ( 129.5999999999999700, 1.555301434917138400E-015, -12.69999999999999900 ) ) ;
#186 = CARTESIAN_POINT ( 'NONE',  ( -2.819047619047617000, 0.0000000000000000000, 0.0000000000000000000 ) ) ;
#187 = CALENDAR_DATE ( 2019, 28, 10 ) ;
#188 = ORIENTED_EDGE ( 'NONE', *, *, #57, .F. ) ;
#189 = AXIS2_PLACEMENT_3D ( 'NONE', #351, #26, #219 ) ;
#190 = CARTESIAN_POINT ( 'NONE',  ( 0.0000000000000000000, 0.0000000000000000000, 8.000000000000000000 ) ) ;
#191 = CARTESIAN_POINT ( 'NONE',  ( 132.7999999999999800, 12.69999999999999900, 0.0000000000000000000 ) ) ;
#192 = ORIENTED_EDGE ( 'NONE', *, *, #247, .F. ) ;
#193 = ORIENTED_EDGE ( 'NONE', *, *, #148, .F. ) ;
#194 = CARTESIAN_POINT ( 'NONE',  ( 132.7999999999999800, 0.0000000000000000000, 12.69999999999999900 ) ) ;
#195 = ADVANCED_FACE ( 'NONE', ( #243 ), #51, .T. ) ;
#196 = EDGE_CURVE ( 'NONE', #383, #244, #197, .T. ) ;
#197 = CIRCLE ( 'NONE', #352, 12.69999999999999900 ) ;
#198 = VERTEX_POINT ( 'NONE', #113 ) ;
#199 = ORIENTED_EDGE ( 'NONE', *, *, #122, .F. ) ;
#200 = CARTESIAN_POINT ( 'NONE',  ( 128.7999999999999800, 0.0000000000000000000, 0.0000000000000000000 ) ) ;
#201 = DIRECTION ( 'NONE',  ( 0.0000000000000000000, 0.0000000000000000000, 1.000000000000000000 ) ) ;
#202 = CARTESIAN_POINT ( 'NONE',  ( -2.819047619047617000, 0.0000000000000000000, 0.0000000000000000000 ) ) ;
#203 = AXIS2_PLACEMENT_3D ( 'NONE', #328, #69, #223 ) ;
#204 = CARTESIAN_POINT ( 'NONE',  ( 132.7999999999999800, 1.555301434917138400E-015, -12.69999999999999900 ) ) ;
#205 = CC_DESIGN_SECURITY_CLASSIFICATION ( #181, ( #368 ) ) ;
#206 = EDGE_CURVE ( 'NONE', #25, #120, #24, .T. ) ;
#207 = FACE_OUTER_BOUND ( 'NONE', #273, .T. ) ;
#208 = LINE ( 'NONE', #246, #17 ) ;
#209 = DIRECTION ( 'NONE',  ( 0.0000000000000000000, 0.0000000000000000000, -1.000000000000000000 ) ) ;
#210 = APPROVAL_STATUS ( 'not_yet_approved' ) ;
#211 = DIRECTION ( 'NONE',  ( -1.000000000000000000, -0.0000000000000000000, -0.0000000000000000000 ) ) ;
#212 = EDGE_CURVE ( 'NONE', #198, #35, #299, .T. ) ;
#213 = DIRECTION ( 'NONE',  ( -1.000000000000000000, -0.0000000000000000000, -0.0000000000000000000 ) ) ;
#214 = VERTEX_POINT ( 'NONE', #147 ) ;
#215 = EDGE_LOOP ( 'NONE', ( #301, #235 ) ) ;
#216 = ADVANCED_FACE ( 'NONE', ( #281, #277 ), #337, .F. ) ;
#217 = CYLINDRICAL_SURFACE ( 'NONE', #189, 12.19999999999999900 ) ;
#218 = PERSON_AND_ORGANIZATION ( #315, #62 ) ;
#219 = DIRECTION ( 'NONE',  ( 0.0000000000000000000, 0.0000000000000000000, 1.000000000000000000 ) ) ;
#220 = AXIS2_PLACEMENT_3D ( 'NONE', #242, #340, #121 ) ;
#221 = DIRECTION ( 'NONE',  ( 0.0000000000000000000, 0.0000000000000000000, 1.000000000000000000 ) ) ;
#222 = ADVANCED_FACE ( 'NONE', ( #179 ), #272, .T. ) ;
#223 = DIRECTION ( 'NONE',  ( 0.0000000000000000000, 0.0000000000000000000, 1.000000000000000000 ) ) ;
#224 = LOCAL_TIME ( 16, 51, 40.00000000000000000, #39 ) ;
#225 = DATE_AND_TIME ( #240, #78 ) ;
#226 = CYLINDRICAL_SURFACE ( 'NONE', #158, 13.00000000000000000 ) ;
#227 = DIRECTION ( 'NONE',  ( 0.0000000000000000000, 0.0000000000000000000, 1.000000000000000000 ) ) ;
#228 = ORIENTED_EDGE ( 'NONE', *, *, #401, .T. ) ;
#229 = ORIENTED_EDGE ( 'NONE', *, *, #175, .F. ) ;
#230 = DIRECTION ( 'NONE',  ( -1.000000000000000000, -0.0000000000000000000, -0.0000000000000000000 ) ) ;
#231 =( LENGTH_UNIT ( ) NAMED_UNIT ( * ) SI_UNIT ( .MILLI., .METRE. ) );
#232 = DIRECTION ( 'NONE',  ( -1.000000000000000000, -0.0000000000000000000, -0.0000000000000000000 ) ) ;
#233 = CYLINDRICAL_SURFACE ( 'NONE', #289, 13.00000000000000000 ) ;
#234 = AXIS2_PLACEMENT_3D ( 'NONE', #8, #296, #265 ) ;
#235 = ORIENTED_EDGE ( 'NONE', *, *, #50, .F. ) ;
#236 = EDGE_LOOP ( 'NONE', ( #306, #138, #13, #64 ) ) ;
#237 = CARTESIAN_POINT ( 'NONE',  ( -2.819047619047617000, 1.555301434917138400E-015, -12.69999999999999900 ) ) ;
#238 = EDGE_CURVE ( 'NONE', #362, #353, #347, .T. ) ;
#239 = EDGE_CURVE ( 'NONE', #68, #362, #370, .T. ) ;
#240 = CALENDAR_DATE ( 2019, 28, 10 ) ;
#241 = CARTESIAN_POINT ( 'NONE',  ( -2.819047619047617000, 0.0000000000000000000, 13.00000000000000000 ) ) ;
#242 = CARTESIAN_POINT ( 'NONE',  ( 129.5999999999999700, 0.0000000000000000000, 0.0000000000000000000 ) ) ;
#243 = FACE_OUTER_BOUND ( 'NONE', #53, .T. ) ;
#244 = VERTEX_POINT ( 'NONE', #204 ) ;
#245 = ORIENTED_EDGE ( 'NONE', *, *, #175, .T. ) ;
#246 = CARTESIAN_POINT ( 'NONE',  ( -2.819047619047617000, 0.0000000000000000000, 12.69999999999999900 ) ) ;
#247 = EDGE_CURVE ( 'NONE', #35, #390, #165, .T. ) ;
#248 = DIRECTION ( 'NONE',  ( 0.0000000000000000000, 0.0000000000000000000, 1.000000000000000000 ) ) ;
#249 = PERSON_AND_ORGANIZATION ( #315, #62 ) ;
#250 = PERSON_AND_ORGANIZATION_ROLE ( 'creator' ) ;
#251 = VECTOR ( 'NONE', #95, 1000.000000000000000 ) ;
#252 = VERTEX_POINT ( 'NONE', #364 ) ;
#253 = PERSON_AND_ORGANIZATION_ROLE ( 'classification_officer' ) ;
#254 = ADVANCED_FACE ( 'NONE', ( #293, #71 ), #267, .F. ) ;
#255 = LOCAL_TIME ( 16, 51, 40.00000000000000000, #58 ) ;
#256 = VECTOR ( 'NONE', #271, 1000.000000000000000 ) ;
#257 = ORIENTED_EDGE ( 'NONE', *, *, #392, .T. ) ;
#258 = EDGE_CURVE ( 'NONE', #244, #183, #360, .T. ) ;
#259 = CALENDAR_DATE ( 2019, 28, 10 ) ;
#260 = CARTESIAN_POINT ( 'NONE',  ( 128.7999999999999800, 0.0000000000000000000, 0.0000000000000000000 ) ) ;
#261 = AXIS2_PLACEMENT_3D ( 'NONE', #92, #316, #381 ) ;
#262 = CC_DESIGN_APPROVAL ( #304, ( #322 ) ) ;
#263 = CARTESIAN_POINT ( 'NONE',  ( 122.3000000000000000, 1.592040838891559100E-015, -13.00000000000000000 ) ) ;
#264 = FACE_OUTER_BOUND ( 'NONE', #398, .T. ) ;
#265 = DIRECTION ( 'NONE',  ( 1.000000000000000000, 0.0000000000000000000, 0.0000000000000000000 ) ) ;
#266 = ORIENTED_EDGE ( 'NONE', *, *, #50, .T. ) ;
#267 = PLANE ( 'NONE',  #302 ) ;
#268 = APPLICATION_PROTOCOL_DEFINITION ( 'international standard', 'config_control_design', 1994, #70 ) ;
#269 = DIRECTION ( 'NONE',  ( -1.000000000000000000, -0.0000000000000000000, -0.0000000000000000000 ) ) ;
#270 = AXIS2_PLACEMENT_3D ( 'NONE', #333, #232, #403 ) ;
#271 = DIRECTION ( 'NONE',  ( -1.000000000000000000, -0.0000000000000000000, -0.0000000000000000000 ) ) ;
#272 = CYLINDRICAL_SURFACE ( 'NONE', #270, 12.19999999999999900 ) ;
#273 = EDGE_LOOP ( 'NONE', ( #354, #106, #110, #229 ) ) ;
#274 = ORIENTED_EDGE ( 'NONE', *, *, #155, .F. ) ;
#275 = DIRECTION ( 'NONE',  ( -1.000000000000000000, -0.0000000000000000000, -0.0000000000000000000 ) ) ;
#276 = PERSON_AND_ORGANIZATION ( #315, #62 ) ;
#277 = FACE_OUTER_BOUND ( 'NONE', #60, .T. ) ;
#278 = CC_DESIGN_PERSON_AND_ORGANIZATION_ASSIGNMENT ( #6, #56, ( #322 ) ) ;
#279 = DIRECTION ( 'NONE',  ( -1.000000000000000000, -0.0000000000000000000, -0.0000000000000000000 ) ) ;
#280 = DIRECTION ( 'NONE',  ( 0.0000000000000000000, 0.0000000000000000000, 1.000000000000000000 ) ) ;
#281 = FACE_BOUND ( 'NONE', #282, .T. ) ;
#282 = EDGE_LOOP ( 'NONE', ( #193, #339 ) ) ;
#283 = DATE_TIME_ROLE ( 'classification_date' ) ;
#284 = ORIENTED_EDGE ( 'NONE', *, *, #32, .T. ) ;
#285 = CARTESIAN_POINT ( 'NONE',  ( -2.819047619047617000, 0.0000000000000000000, 8.000000000000000000 ) ) ;
#286 = ADVANCED_FACE ( 'NONE', ( #207 ), #233, .T. ) ;
#287 = FACE_OUTER_BOUND ( 'NONE', #413, .T. ) ;
#288 = LINE ( 'NONE', #285, #251 ) ;
#289 = AXIS2_PLACEMENT_3D ( 'NONE', #202, #269, #330 ) ;
#290 = ORIENTED_EDGE ( 'NONE', *, *, #134, .T. ) ;
#291 = CARTESIAN_POINT ( 'NONE',  ( 132.7999999999999800, 0.0000000000000000000, 0.0000000000000000000 ) ) ;
#292 = DIRECTION ( 'NONE',  ( -1.000000000000000000, -0.0000000000000000000, -0.0000000000000000000 ) ) ;
#293 = FACE_BOUND ( 'NONE', #215, .T. ) ;
#294 = PLANE ( 'NONE',  #331 ) ;
#295 = DIRECTION ( 'NONE',  ( 1.000000000000000000, 0.0000000000000000000, 0.0000000000000000000 ) ) ;
#296 = DIRECTION ( 'NONE',  ( 0.0000000000000000000, 0.0000000000000000000, 1.000000000000000000 ) ) ;
#297 = CARTESIAN_POINT ( 'NONE',  ( 122.3000000000000000, 8.000000000000000000, 0.0000000000000000000 ) ) ;
#298 =( GEOMETRIC_REPRESENTATION_CONTEXT ( 3 ) GLOBAL_UNCERTAINTY_ASSIGNED_CONTEXT ( ( #112 ) ) GLOBAL_UNIT_ASSIGNED_CONTEXT ( ( #231, #37, #38 ) ) REPRESENTATION_CONTEXT ( 'NONE', 'WORKASPACE' ) );
#299 = LINE ( 'NONE', #241, #312 ) ;
#300 = DIRECTION ( 'NONE',  ( 1.000000000000000000, 0.0000000000000000000, 0.0000000000000000000 ) ) ;
#301 = ORIENTED_EDGE ( 'NONE', *, *, #392, .F. ) ;
#302 = AXIS2_PLACEMENT_3D ( 'NONE', #297, #295, #329 ) ;
#303 = DIRECTION ( 'NONE',  ( 0.0000000000000000000, 0.0000000000000000000, 1.000000000000000000 ) ) ;
#304 = APPROVAL ( #156, 'Î´Ö¸¶¨' ) ;
#305 = CYLINDRICAL_SURFACE ( 'NONE', #76, 8.000000000000000000 ) ;
#306 = ORIENTED_EDGE ( 'NONE', *, *, #148, .T. ) ;
#307 = CALENDAR_DATE ( 2019, 28, 10 ) ;
#308 = ORIENTED_EDGE ( 'NONE', *, *, #356, .F. ) ;
#309 = CC_DESIGN_APPROVAL ( #90, ( #368 ) ) ;
#310 = CARTESIAN_POINT ( 'NONE',  ( -2.819047619047617000, 9.797174393178825700E-016, -8.000000000000000000 ) ) ;
#311 = APPROVAL_PERSON_ORGANIZATION ( #249, #304, #346 ) ;
#312 = VECTOR ( 'NONE', #14, 1000.000000000000000 ) ;
#313 = CARTESIAN_POINT ( 'NONE',  ( 129.5999999999999700, 0.0000000000000000000, 0.0000000000000000000 ) ) ;
#314 = EDGE_LOOP ( 'NONE', ( #169, #371 ) ) ;
#315 = PERSON ( 'Î´Ö¸¶¨', 'Î´Ö¸¶¨', 'Î´Ö¸¶¨', ('Î´Ö¸¶¨'), ('Î´Ö¸¶¨'), ('Î´Ö¸¶¨') ) ;
#316 = DIRECTION ( 'NONE',  ( -1.000000000000000000, -0.0000000000000000000, -0.0000000000000000000 ) ) ;
#317 = DATE_AND_TIME ( #187, #255 ) ;
#318 = DIRECTION ( 'NONE',  ( -1.000000000000000000, -0.0000000000000000000, -0.0000000000000000000 ) ) ;
#319 = CARTESIAN_POINT ( 'NONE',  ( 122.3000000000000000, 0.0000000000000000000, 13.00000000000000000 ) ) ;
#320 = LINE ( 'NONE', #310, #7 ) ;
#321 = EDGE_LOOP ( 'NONE', ( #384, #332 ) ) ;
#322 = PRODUCT_DEFINITION ( 'Î´Öª', '', #368, #369 ) ;
#323 = DIRECTION ( 'NONE',  ( -1.000000000000000000, -0.0000000000000000000, -0.0000000000000000000 ) ) ;
#324 = DIRECTION ( 'NONE',  ( -0.0000000000000000000, 0.0000000000000000000, 1.000000000000000000 ) ) ;
#325 = AXIS2_PLACEMENT_3D ( 'NONE', #291, #133, #355 ) ;
#326 = ORIENTED_EDGE ( 'NONE', *, *, #57, .T. ) ;
#327 = CARTESIAN_POINT ( 'NONE',  ( 128.7999999999999800, 0.0000000000000000000, 12.19999999999999900 ) ) ;
#328 = CARTESIAN_POINT ( 'NONE',  ( 128.7999999999999800, 0.0000000000000000000, 0.0000000000000000000 ) ) ;
#329 = DIRECTION ( 'NONE',  ( 0.0000000000000000000, 0.0000000000000000000, -1.000000000000000000 ) ) ;
#330 = DIRECTION ( 'NONE',  ( 0.0000000000000000000, 0.0000000000000000000, 1.000000000000000000 ) ) ;
#331 = AXIS2_PLACEMENT_3D ( 'NONE', #67, #136, #324 ) ;
#332 = ORIENTED_EDGE ( 'NONE', *, *, #365, .F. ) ;
#333 = CARTESIAN_POINT ( 'NONE',  ( -2.819047619047617000, 0.0000000000000000000, 0.0000000000000000000 ) ) ;
#334 = VERTEX_POINT ( 'NONE', #108 ) ;
#335 = PERSON_AND_ORGANIZATION ( #315, #62 ) ;
#336 = ORIENTED_EDGE ( 'NONE', *, *, #258, .T. ) ;
#337 = PLANE ( 'NONE',  #168 ) ;
#338 = VECTOR ( 'NONE', #180, 1000.000000000000000 ) ;
#339 = ORIENTED_EDGE ( 'NONE', *, *, #21, .F. ) ;
#340 = DIRECTION ( 'NONE',  ( -1.000000000000000000, -0.0000000000000000000, -0.0000000000000000000 ) ) ;
#341 = CARTESIAN_POINT ( 'NONE',  ( -2.819047619047617000, 1.494069094959770900E-015, -12.19999999999999900 ) ) ;
#342 = EDGE_CURVE ( 'NONE', #334, #198, #172, .T. ) ;
#343 = DIRECTION ( 'NONE',  ( 0.0000000000000000000, 0.0000000000000000000, 1.000000000000000000 ) ) ;
#344 = APPROVAL_STATUS ( 'not_yet_approved' ) ;
#345 = DIRECTION ( 'NONE',  ( -1.000000000000000000, -0.0000000000000000000, -0.0000000000000000000 ) ) ;
#346 = APPROVAL_ROLE ( '' ) ;
#347 = CIRCLE ( 'NONE', #395, 12.19999999999999900 ) ;
#348 = ORIENTED_EDGE ( 'NONE', *, *, #206, .T. ) ;
#349 = DIRECTION ( 'NONE',  ( -0.0000000000000000000, 0.0000000000000000000, 1.000000000000000000 ) ) ;
#350 = ADVANCED_FACE ( 'NONE', ( #124, #59 ), #294, .F. ) ;
#351 = CARTESIAN_POINT ( 'NONE',  ( -2.819047619047617000, 0.0000000000000000000, 0.0000000000000000000 ) ) ;
#352 = AXIS2_PLACEMENT_3D ( 'NONE', #80, #275, #303 ) ;
#353 = VERTEX_POINT ( 'NONE', #31 ) ;
#354 = ORIENTED_EDGE ( 'NONE', *, *, #145, .F. ) ;
#355 = DIRECTION ( 'NONE',  ( 0.0000000000000000000, 0.0000000000000000000, 1.000000000000000000 ) ) ;
#356 = EDGE_CURVE ( 'NONE', #120, #25, #406, .T. ) ;
#357 = CIRCLE ( 'NONE', #325, 12.69999999999999900 ) ;
#358 = VERTEX_POINT ( 'NONE', #3 ) ;
#359 = DIRECTION ( 'NONE',  ( -1.000000000000000000, -0.0000000000000000000, -0.0000000000000000000 ) ) ;
#360 = LINE ( 'NONE', #237, #256 ) ;
#361 = ORIENTED_EDGE ( 'NONE', *, *, #365, .T. ) ;
#362 = VERTEX_POINT ( 'NONE', #327 ) ;
#363 = DIRECTION ( 'NONE',  ( -1.000000000000000000, -0.0000000000000000000, -0.0000000000000000000 ) ) ;
#364 = CARTESIAN_POINT ( 'NONE',  ( 129.5999999999999700, 1.494069094959770900E-015, -12.19999999999999900 ) ) ;
#365 = EDGE_CURVE ( 'NONE', #244, #383, #357, .T. ) ;
#366 = AXIS2_PLACEMENT_3D ( 'NONE', #48, #18, #248 ) ;
#367 = CARTESIAN_POINT ( 'NONE',  ( 0.0000000000000000000, 0.0000000000000000000, 0.0000000000000000000 ) ) ;
#368 = PRODUCT_DEFINITION_FORMATION_WITH_SPECIFIED_SOURCE ( 'ÈÎºÎ', '', #87, .NOT_KNOWN. ) ;
#369 = DESIGN_CONTEXT ( 'detailed design', #184, 'design' ) ;
#370 = LINE ( 'NONE', #43, #1 ) ;
#371 = ORIENTED_EDGE ( 'NONE', *, *, #342, .F. ) ;
#372 = EDGE_LOOP ( 'NONE', ( #348, #171 ) ) ;
#373 = DIRECTION ( 'NONE',  ( -1.000000000000000000, -0.0000000000000000000, -0.0000000000000000000 ) ) ;
#374 = CARTESIAN_POINT ( 'NONE',  ( -2.819047619047617000, 1.592040838891559100E-015, -13.00000000000000000 ) ) ;
#375 = DATE_AND_TIME ( #128, #224 ) ;
#376 = CIRCLE ( 'NONE', #61, 13.00000000000000000 ) ;
#377 = CARTESIAN_POINT ( 'NONE',  ( 0.0000000000000000000, 0.0000000000000000000, 0.0000000000000000000 ) ) ;
#378 = APPLICATION_PROTOCOL_DEFINITION ( 'international standard', 'config_control_design', 1994, #184 ) ;
#379 = EDGE_CURVE ( 'NONE', #353, #362, #63, .T. ) ;
#380 = PERSON_AND_ORGANIZATION ( #315, #62 ) ;
#381 = DIRECTION ( 'NONE',  ( 0.0000000000000000000, 0.0000000000000000000, 1.000000000000000000 ) ) ;
#382 = CIRCLE ( 'NONE', #366, 12.19999999999999900 ) ;
#383 = VERTEX_POINT ( 'NONE', #194 ) ;
#384 = ORIENTED_EDGE ( 'NONE', *, *, #196, .F. ) ;
#385 = ADVANCED_FACE ( 'NONE', ( #151 ), #305, .T. ) ;
#386 = AXIS2_PLACEMENT_3D ( 'NONE', #191, #127, #349 ) ;
#387 = FACE_OUTER_BOUND ( 'NONE', #394, .T. ) ;
#388 = CIRCLE ( 'NONE', #393, 12.19999999999999900 ) ;
#389 = DIRECTION ( 'NONE',  ( 0.0000000000000000000, 0.0000000000000000000, 1.000000000000000000 ) ) ;
#390 = VERTEX_POINT ( 'NONE', #263 ) ;
#391 = DIRECTION ( 'NONE',  ( -1.000000000000000000, -0.0000000000000000000, -0.0000000000000000000 ) ) ;
#392 = EDGE_CURVE ( 'NONE', #214, #358, #40, .T. ) ;
#393 = AXIS2_PLACEMENT_3D ( 'NONE', #2, #166, #389 ) ;
#394 = EDGE_LOOP ( 'NONE', ( #274, #45, #30, #414 ) ) ;
#395 = AXIS2_PLACEMENT_3D ( 'NONE', #402, #399, #201 ) ;
#396 = CARTESIAN_POINT ( 'NONE',  ( 122.3000000000000000, 0.0000000000000000000, 0.0000000000000000000 ) ) ;
#397 = CYLINDRICAL_SURFACE ( 'NONE', #176, 12.69999999999999900 ) ;
#398 = EDGE_LOOP ( 'NONE', ( #228, #79, #192, #153 ) ) ;
#399 = DIRECTION ( 'NONE',  ( -1.000000000000000000, -0.0000000000000000000, -0.0000000000000000000 ) ) ;
#400 = ORIENTED_EDGE ( 'NONE', *, *, #206, .F. ) ;
#401 = EDGE_CURVE ( 'NONE', #198, #334, #376, .T. ) ;
#402 = CARTESIAN_POINT ( 'NONE',  ( 128.7999999999999800, 0.0000000000000000000, 0.0000000000000000000 ) ) ;
#403 = DIRECTION ( 'NONE',  ( 0.0000000000000000000, 0.0000000000000000000, 1.000000000000000000 ) ) ;
#404 = ORIENTED_EDGE ( 'NONE', *, *, #247, .T. ) ;
#405 = DIRECTION ( 'NONE',  ( 0.0000000000000000000, 0.0000000000000000000, 1.000000000000000000 ) ) ;
#406 = CIRCLE ( 'NONE', #20, 8.000000000000000000 ) ;
#407 = DIRECTION ( 'NONE',  ( 0.0000000000000000000, 0.0000000000000000000, 1.000000000000000000 ) ) ;
#408 = CC_DESIGN_PERSON_AND_ORGANIZATION_ASSIGNMENT ( #276, #107, ( #87 ) ) ;
#409 = PERSON_AND_ORGANIZATION_ROLE ( 'design_supplier' ) ;
#410 = CARTESIAN_POINT ( 'NONE',  ( -2.819047619047617000, 0.0000000000000000000, 0.0000000000000000000 ) ) ;
#411 = DIRECTION ( 'NONE',  ( 0.0000000000000000000, 0.0000000000000000000, 1.000000000000000000 ) ) ;
#412 = PRODUCT_DEFINITION_SHAPE ( 'NONE', 'NONE',  #322 ) ;
#413 = EDGE_LOOP ( 'NONE', ( #146, #336, #199, #161 ) ) ;
#414 = ORIENTED_EDGE ( 'NONE', *, *, #379, .F. ) ;
#415 = AXIS2_PLACEMENT_3D ( 'NONE', #260, #292, #227 ) ;
ENDSEC;
END-ISO-10303-21;
