ISO-10303-21;
HEADER;
FILE_DESCRIPTION (( 'STEP AP203' ),
    '1' );
FILE_NAME ('WWL30-65A STEPÍ¼.STEP',
    '2019-10-28T08:39:45',
    ( '' ),
    ( '' ),
    'SwSTEP 2.0',
    'SolidWorks 2014',
    '' );
FILE_SCHEMA (( 'CONFIG_CONTROL_DESIGN' ));
ENDSEC;

DATA;
#1 = CC_DESIGN_PERSON_AND_ORGANIZATION_ASSIGNMENT ( #221, #72, ( #209 ) ) ;
#2 = EDGE_LOOP ( 'NONE', ( #382, #300 ) ) ;
#3 = CARTESIAN_POINT ( 'NONE',  ( -1.007407407407405300, 0.0000000000000000000, 12.19999999999999900 ) ) ;
#4 = PERSON_AND_ORGANIZATION_ROLE ( 'design_owner' ) ;
#5 = DIRECTION ( 'NONE',  ( -1.000000000000000000, -0.0000000000000000000, -0.0000000000000000000 ) ) ;
#6 = LOCAL_TIME ( 16, 39, 45.00000000000000000, #86 ) ;
#7 = VERTEX_POINT ( 'NONE', #84 ) ;
#8 = FACE_OUTER_BOUND ( 'NONE', #404, .T. ) ;
#9 = APPROVAL_ROLE ( '' ) ;
#10 = ORIENTED_EDGE ( 'NONE', *, *, #159, .T. ) ;
#11 = ADVANCED_FACE ( 'NONE', ( #132, #333 ), #54, .F. ) ;
#12 = DESIGN_CONTEXT ( 'detailed design', #136, 'design' ) ;
#13 = DIRECTION ( 'NONE',  ( -1.000000000000000000, -0.0000000000000000000, -0.0000000000000000000 ) ) ;
#14 = ORIENTED_EDGE ( 'NONE', *, *, #295, .F. ) ;
#15 = ADVANCED_FACE ( 'NONE', ( #157 ), #29, .T. ) ;
#16 = ADVANCED_FACE ( 'NONE', ( #108 ), #49, .T. ) ;
#17 = AXIS2_PLACEMENT_3D ( 'NONE', #366, #270, #335 ) ;
#18 = LOCAL_TIME ( 16, 39, 45.00000000000000000, #212 ) ;
#19 = VERTEX_POINT ( 'NONE', #324 ) ;
#20 = FACE_BOUND ( 'NONE', #274, .T. ) ;
#21 = VERTEX_POINT ( 'NONE', #266 ) ;
#22 = CARTESIAN_POINT ( 'NONE',  ( 68.50000000000000000, 0.0000000000000000000, 0.0000000000000000000 ) ) ;
#23 = AXIS2_PLACEMENT_3D ( 'NONE', #256, #65, #67 ) ;
#24 = EDGE_CURVE ( 'NONE', #317, #370, #205, .T. ) ;
#25 = CARTESIAN_POINT ( 'NONE',  ( 68.50000000000000000, 9.797174393178825700E-016, -8.000000000000000000 ) ) ;
#26 = CARTESIAN_POINT ( 'NONE',  ( 75.00000000000000000, 13.00000000000000400, 0.0000000000000000000 ) ) ;
#27 = APPROVAL_PERSON_ORGANIZATION ( #307, #348, #9 ) ;
#28 = CIRCLE ( 'NONE', #59, 8.000000000000000000 ) ;
#29 = CYLINDRICAL_SURFACE ( 'NONE', #196, 8.000000000000000000 ) ;
#30 = AXIS2_PLACEMENT_3D ( 'NONE', #260, #188, #355 ) ;
#31 = DIRECTION ( 'NONE',  ( -1.000000000000000000, -0.0000000000000000000, -0.0000000000000000000 ) ) ;
#32 = CIRCLE ( 'NONE', #411, 12.19999999999999900 ) ;
#33 = ORIENTED_EDGE ( 'NONE', *, *, #46, .F. ) ;
#34 = CARTESIAN_POINT ( 'NONE',  ( 79.00000000000001400, 0.0000000000000000000, 0.0000000000000000000 ) ) ;
#35 = CC_DESIGN_PERSON_AND_ORGANIZATION_ASSIGNMENT ( #121, #161, ( #204 ) ) ;
#36 = ORIENTED_EDGE ( 'NONE', *, *, #234, .T. ) ;
#37 = VECTOR ( 'NONE', #198, 1000.000000000000000 ) ;
#38 = PERSON_AND_ORGANIZATION_ROLE ( 'creator' ) ;
#39 =( LENGTH_UNIT ( ) NAMED_UNIT ( * ) SI_UNIT ( .MILLI., .METRE. ) );
#40 = AXIS2_PLACEMENT_3D ( 'NONE', #387, #253, #62 ) ;
#41 = DIRECTION ( 'NONE',  ( 0.0000000000000000000, 0.0000000000000000000, 1.000000000000000000 ) ) ;
#42 = CIRCLE ( 'NONE', #193, 12.69999999999999900 ) ;
#43 = EDGE_LOOP ( 'NONE', ( #305, #214, #93, #82 ) ) ;
#44 = DIRECTION ( 'NONE',  ( -1.000000000000000000, -0.0000000000000000000, -0.0000000000000000000 ) ) ;
#45 = ADVANCED_FACE ( 'NONE', ( #75 ), #344, .T. ) ;
#46 = EDGE_CURVE ( 'NONE', #91, #293, #223, .T. ) ;
#47 = PERSON_AND_ORGANIZATION ( #358, #352 ) ;
#48 = DIRECTION ( 'NONE',  ( -0.0000000000000000000, 0.0000000000000000000, 1.000000000000000000 ) ) ;
#49 = CYLINDRICAL_SURFACE ( 'NONE', #211, 8.000000000000000000 ) ;
#50 = CARTESIAN_POINT ( 'NONE',  ( 79.00000000000001400, 0.0000000000000000000, 0.0000000000000000000 ) ) ;
#51 = AXIS2_PLACEMENT_3D ( 'NONE', #103, #357, #261 ) ;
#52 = EDGE_CURVE ( 'NONE', #407, #19, #279, .T. ) ;
#53 = ORIENTED_EDGE ( 'NONE', *, *, #350, .T. ) ;
#54 = PLANE ( 'NONE',  #151 ) ;
#55 = CARTESIAN_POINT ( 'NONE',  ( 75.79999999999999700, 0.0000000000000000000, 0.0000000000000000000 ) ) ;
#56 = DATE_AND_TIME ( #242, #201 ) ;
#57 = VECTOR ( 'NONE', #331, 1000.000000000000000 ) ;
#58 = DIRECTION ( 'NONE',  ( -1.000000000000000000, -0.0000000000000000000, -0.0000000000000000000 ) ) ;
#59 = AXIS2_PLACEMENT_3D ( 'NONE', #343, #87, #120 ) ;
#60 = CARTESIAN_POINT ( 'NONE',  ( -1.007407407407405300, 9.797174393178825700E-016, -8.000000000000000000 ) ) ;
#61 = AXIS2_PLACEMENT_3D ( 'NONE', #265, #166, #291 ) ;
#62 = DIRECTION ( 'NONE',  ( 0.0000000000000000000, 0.0000000000000000000, 1.000000000000000000 ) ) ;
#63 = ORIENTED_EDGE ( 'NONE', *, *, #159, .F. ) ;
#64 = PLANE ( 'NONE',  #23 ) ;
#65 = DIRECTION ( 'NONE',  ( 1.000000000000000000, 0.0000000000000000000, 0.0000000000000000000 ) ) ;
#66 = EDGE_CURVE ( 'NONE', #356, #407, #381, .T. ) ;
#67 = DIRECTION ( 'NONE',  ( 0.0000000000000000000, 0.0000000000000000000, -1.000000000000000000 ) ) ;
#68 = APPROVAL_PERSON_ORGANIZATION ( #74, #124, #392 ) ;
#69 = VERTEX_POINT ( 'NONE', #294 ) ;
#70 = CARTESIAN_POINT ( 'NONE',  ( 75.79999999999999700, 0.0000000000000000000, 0.0000000000000000000 ) ) ;
#71 =( NAMED_UNIT ( * ) SI_UNIT ( $, .STERADIAN. ) SOLID_ANGLE_UNIT ( ) );
#72 = PERSON_AND_ORGANIZATION_ROLE ( 'classification_officer' ) ;
#73 = ADVANCED_FACE ( 'NONE', ( #251 ), #288, .F. ) ;
#74 = PERSON_AND_ORGANIZATION ( #358, #352 ) ;
#75 = FACE_OUTER_BOUND ( 'NONE', #43, .T. ) ;
#76 = VERTEX_POINT ( 'NONE', #329 ) ;
#77 = CARTESIAN_POINT ( 'NONE',  ( -1.007407407407405300, 0.0000000000000000000, 8.000000000000000000 ) ) ;
#78 = VERTEX_POINT ( 'NONE', #138 ) ;
#79 = DIRECTION ( 'NONE',  ( 0.0000000000000000000, 0.0000000000000000000, 1.000000000000000000 ) ) ;
#80 = AXIS2_PLACEMENT_3D ( 'NONE', #296, #200, #341 ) ;
#81 = DIRECTION ( 'NONE',  ( 0.0000000000000000000, 0.0000000000000000000, 1.000000000000000000 ) ) ;
#82 = ORIENTED_EDGE ( 'NONE', *, *, #85, .F. ) ;
#83 = CARTESIAN_POINT ( 'NONE',  ( -1.007407407407405300, 0.0000000000000000000, 0.0000000000000000000 ) ) ;
#84 = CARTESIAN_POINT ( 'NONE',  ( 0.0000000000000000000, 9.797174393178825700E-016, -8.000000000000000000 ) ) ;
#85 = EDGE_CURVE ( 'NONE', #199, #19, #378, .T. ) ;
#86 = COORDINATED_UNIVERSAL_TIME_OFFSET ( 8, 0, .AHEAD. ) ;
#87 = DIRECTION ( 'NONE',  ( -1.000000000000000000, -0.0000000000000000000, -0.0000000000000000000 ) ) ;
#88 = ORIENTED_EDGE ( 'NONE', *, *, #362, .F. ) ;
#89 = CARTESIAN_POINT ( 'NONE',  ( 79.00000000000001400, 0.0000000000000000000, 12.69999999999999900 ) ) ;
#90 = CARTESIAN_POINT ( 'NONE',  ( 75.00000000000000000, 0.0000000000000000000, 0.0000000000000000000 ) ) ;
#91 = VERTEX_POINT ( 'NONE', #164 ) ;
#92 = FACE_OUTER_BOUND ( 'NONE', #314, .T. ) ;
#93 = ORIENTED_EDGE ( 'NONE', *, *, #52, .T. ) ;
#94 = DIRECTION ( 'NONE',  ( -1.000000000000000000, -0.0000000000000000000, -0.0000000000000000000 ) ) ;
#95 =( GEOMETRIC_REPRESENTATION_CONTEXT ( 3 ) GLOBAL_UNCERTAINTY_ASSIGNED_CONTEXT ( ( #244 ) ) GLOBAL_UNIT_ASSIGNED_CONTEXT ( ( #39, #389, #71 ) ) REPRESENTATION_CONTEXT ( 'NONE', 'WORKASPACE' ) );
#96 = DIRECTION ( 'NONE',  ( -1.000000000000000000, -0.0000000000000000000, -0.0000000000000000000 ) ) ;
#97 = EDGE_CURVE ( 'NONE', #91, #69, #230, .T. ) ;
#98 = ORIENTED_EDGE ( 'NONE', *, *, #24, .T. ) ;
#99 = CARTESIAN_POINT ( 'NONE',  ( 75.79999999999999700, 1.494069094959770900E-015, -12.19999999999999900 ) ) ;
#100 = APPLICATION_CONTEXT ( 'configuration controlled 3d designs of mechanical parts and assemblies' ) ;
#101 = CARTESIAN_POINT ( 'NONE',  ( -1.007407407407405300, 0.0000000000000000000, 0.0000000000000000000 ) ) ;
#102 = VECTOR ( 'NONE', #13, 1000.000000000000000 ) ;
#103 = CARTESIAN_POINT ( 'NONE',  ( 0.0000000000000000000, 0.0000000000000000000, 0.0000000000000000000 ) ) ;
#104 = ORIENTED_EDGE ( 'NONE', *, *, #208, .F. ) ;
#105 = CC_DESIGN_PERSON_AND_ORGANIZATION_ASSIGNMENT ( #141, #4, ( #194 ) ) ;
#106 = CARTESIAN_POINT ( 'NONE',  ( 68.50000000000000000, 0.0000000000000000000, 0.0000000000000000000 ) ) ;
#107 = ADVANCED_FACE ( 'NONE', ( #386 ), #237, .F. ) ;
#108 = FACE_OUTER_BOUND ( 'NONE', #342, .T. ) ;
#109 = EDGE_CURVE ( 'NONE', #252, #340, #299, .T. ) ;
#110 = CC_DESIGN_SECURITY_CLASSIFICATION ( #209, ( #204 ) ) ;
#111 = ADVANCED_FACE ( 'NONE', ( #190 ), #213, .T. ) ;
#112 = CARTESIAN_POINT ( 'NONE',  ( 75.00000000000000000, 0.0000000000000000000, 0.0000000000000000000 ) ) ;
#113 = FACE_BOUND ( 'NONE', #183, .T. ) ;
#114 = ORIENTED_EDGE ( 'NONE', *, *, #143, .F. ) ;
#115 = DIRECTION ( 'NONE',  ( -1.000000000000000000, 0.0000000000000000000, -0.0000000000000000000 ) ) ;
#116 = EDGE_CURVE ( 'NONE', #7, #69, #364, .T. ) ;
#117 = DIRECTION ( 'NONE',  ( 0.0000000000000000000, 0.0000000000000000000, -1.000000000000000000 ) ) ;
#118 = FACE_OUTER_BOUND ( 'NONE', #192, .T. ) ;
#119 = ORIENTED_EDGE ( 'NONE', *, *, #302, .F. ) ;
#120 = DIRECTION ( 'NONE',  ( 0.0000000000000000000, 0.0000000000000000000, 1.000000000000000000 ) ) ;
#121 = PERSON_AND_ORGANIZATION ( #358, #352 ) ;
#122 = DIRECTION ( 'NONE',  ( -1.000000000000000000, -0.0000000000000000000, -0.0000000000000000000 ) ) ;
#123 = LINE ( 'NONE', #269, #37 ) ;
#124 = APPROVAL ( #327, 'Î´Ö¸¶¨' ) ;
#125 = PRODUCT_DEFINITION_SHAPE ( 'NONE', 'NONE',  #160 ) ;
#126 = CARTESIAN_POINT ( 'NONE',  ( 75.00000000000000000, 1.592040838891559700E-015, -13.00000000000000500 ) ) ;
#127 = LINE ( 'NONE', #60, #403 ) ;
#128 = ORIENTED_EDGE ( 'NONE', *, *, #275, .T. ) ;
#129 = CARTESIAN_POINT ( 'NONE',  ( 75.00000000000000000, 0.0000000000000000000, 13.00000000000000400 ) ) ;
#130 = EDGE_CURVE ( 'NONE', #139, #21, #287, .T. ) ;
#131 = CALENDAR_DATE ( 2019, 28, 10 ) ;
#132 = FACE_BOUND ( 'NONE', #397, .T. ) ;
#133 = CYLINDRICAL_SURFACE ( 'NONE', #227, 12.69999999999999900 ) ;
#134 = ORIENTED_EDGE ( 'NONE', *, *, #362, .T. ) ;
#135 = SECURITY_CLASSIFICATION_LEVEL ( 'unclassified' ) ;
#136 = APPLICATION_CONTEXT ( 'configuration controlled 3d designs of mechanical parts and assemblies' ) ;
#137 = AXIS2_PLACEMENT_3D ( 'NONE', #22, #301, #372 ) ;
#138 = CARTESIAN_POINT ( 'NONE',  ( 75.79999999999999700, 1.555301434917138400E-015, -12.69999999999999900 ) ) ;
#139 = VERTEX_POINT ( 'NONE', #399 ) ;
#140 = DIRECTION ( 'NONE',  ( 0.0000000000000000000, 0.0000000000000000000, 1.000000000000000000 ) ) ;
#141 = PERSON_AND_ORGANIZATION ( #358, #352 ) ;
#142 = LINE ( 'NONE', #184, #197 ) ;
#143 = EDGE_CURVE ( 'NONE', #317, #139, #123, .T. ) ;
#144 = CC_DESIGN_DATE_AND_TIME_ASSIGNMENT ( #337, #226, ( #160 ) ) ;
#145 = LINE ( 'NONE', #349, #304 ) ;
#146 = ORIENTED_EDGE ( 'NONE', *, *, #24, .F. ) ;
#147 = EDGE_CURVE ( 'NONE', #69, #7, #28, .T. ) ;
#148 = DIRECTION ( 'NONE',  ( 0.0000000000000000000, 0.0000000000000000000, 1.000000000000000000 ) ) ;
#149 = PERSON_AND_ORGANIZATION ( #358, #352 ) ;
#150 = FACE_OUTER_BOUND ( 'NONE', #402, .T. ) ;
#151 = AXIS2_PLACEMENT_3D ( 'NONE', #176, #273, #117 ) ;
#152 = CARTESIAN_POINT ( 'NONE',  ( -1.007407407407405300, 1.494069094959770900E-015, -12.19999999999999900 ) ) ;
#153 = CALENDAR_DATE ( 2019, 28, 10 ) ;
#154 = ORIENTED_EDGE ( 'NONE', *, *, #316, .T. ) ;
#155 = ORIENTED_EDGE ( 'NONE', *, *, #302, .T. ) ;
#156 = AXIS2_PLACEMENT_3D ( 'NONE', #26, #284, #217 ) ;
#157 = FACE_OUTER_BOUND ( 'NONE', #177, .T. ) ;
#158 = CARTESIAN_POINT ( 'NONE',  ( -1.007407407407405300, 0.0000000000000000000, 12.69999999999999900 ) ) ;
#159 = EDGE_CURVE ( 'NONE', #370, #317, #239, .T. ) ;
#160 = PRODUCT_DEFINITION ( 'Î´Öª', '', #204, #12 ) ;
#161 = PERSON_AND_ORGANIZATION_ROLE ( 'design_supplier' ) ;
#162 = CALENDAR_DATE ( 2019, 28, 10 ) ;
#163 = CYLINDRICAL_SURFACE ( 'NONE', #40, 13.00000000000000200 ) ;
#164 = CARTESIAN_POINT ( 'NONE',  ( 68.50000000000000000, 0.0000000000000000000, 8.000000000000000000 ) ) ;
#165 = ORIENTED_EDGE ( 'NONE', *, *, #316, .F. ) ;
#166 = DIRECTION ( 'NONE',  ( -1.000000000000000000, -0.0000000000000000000, -0.0000000000000000000 ) ) ;
#167 = CARTESIAN_POINT ( 'NONE',  ( -1.007407407407405300, 0.0000000000000000000, 0.0000000000000000000 ) ) ;
#168 = COORDINATED_UNIVERSAL_TIME_OFFSET ( 8, 0, .AHEAD. ) ;
#169 = EDGE_CURVE ( 'NONE', #293, #91, #309, .T. ) ;
#170 = EDGE_LOOP ( 'NONE', ( #353, #128 ) ) ;
#171 = DIRECTION ( 'NONE',  ( -1.000000000000000000, -0.0000000000000000000, -0.0000000000000000000 ) ) ;
#172 = APPROVAL ( #289, 'Î´Ö¸¶¨' ) ;
#173 = AXIS2_PLACEMENT_3D ( 'NONE', #250, #415, #148 ) ;
#174 = FACE_OUTER_BOUND ( 'NONE', #393, .T. ) ;
#175 = ORIENTED_EDGE ( 'NONE', *, *, #208, .T. ) ;
#176 = CARTESIAN_POINT ( 'NONE',  ( 68.50000000000000000, 8.000000000000000000, 0.0000000000000000000 ) ) ;
#177 = EDGE_LOOP ( 'NONE', ( #229, #175, #264, #414 ) ) ;
#178 = DIRECTION ( 'NONE',  ( 0.0000000000000000000, 0.0000000000000000000, 1.000000000000000000 ) ) ;
#179 = DIRECTION ( 'NONE',  ( 0.0000000000000000000, 0.0000000000000000000, 1.000000000000000000 ) ) ;
#180 = PRODUCT_RELATED_PRODUCT_CATEGORY ( 'detail', '', ( #194 ) ) ;
#181 = FACE_OUTER_BOUND ( 'NONE', #206, .T. ) ;
#182 = CC_DESIGN_APPROVAL ( #124, ( #160 ) ) ;
#183 = EDGE_LOOP ( 'NONE', ( #385, #298 ) ) ;
#184 = CARTESIAN_POINT ( 'NONE',  ( -1.007407407407405300, 1.555301434917138400E-015, -12.69999999999999900 ) ) ;
#185 = DIRECTION ( 'NONE',  ( -1.000000000000000000, -0.0000000000000000000, -0.0000000000000000000 ) ) ;
#186 = DIRECTION ( 'NONE',  ( 0.0000000000000000000, 0.0000000000000000000, 1.000000000000000000 ) ) ;
#187 = ADVANCED_FACE ( 'NONE', ( #181 ), #133, .T. ) ;
#188 = DIRECTION ( 'NONE',  ( -1.000000000000000000, -0.0000000000000000000, -0.0000000000000000000 ) ) ;
#189 = LOCAL_TIME ( 16, 39, 45.00000000000000000, #377 ) ;
#190 = FACE_OUTER_BOUND ( 'NONE', #328, .T. ) ;
#191 = MECHANICAL_CONTEXT ( 'NONE', #100, 'mechanical' ) ;
#192 = EDGE_LOOP ( 'NONE', ( #146, #63 ) ) ;
#193 = AXIS2_PLACEMENT_3D ( 'NONE', #34, #254, #219 ) ;
#194 = PRODUCT ( 'WWL30-65A STEPÍ¼', 'WWL30-65A STEPÍ¼', '', ( #191 ) ) ;
#195 = APPROVAL_STATUS ( 'not_yet_approved' ) ;
#196 = AXIS2_PLACEMENT_3D ( 'NONE', #83, #207, #178 ) ;
#197 = VECTOR ( 'NONE', #122, 1000.000000000000000 ) ;
#198 = DIRECTION ( 'NONE',  ( -1.000000000000000000, -0.0000000000000000000, -0.0000000000000000000 ) ) ;
#199 = VERTEX_POINT ( 'NONE', #247 ) ;
#200 = DIRECTION ( 'NONE',  ( -1.000000000000000000, -0.0000000000000000000, -0.0000000000000000000 ) ) ;
#201 = LOCAL_TIME ( 16, 39, 45.00000000000000000, #168 ) ;
#202 = LINE ( 'NONE', #152, #313 ) ;
#203 = CARTESIAN_POINT ( 'NONE',  ( 79.00000000000001400, 12.69999999999999900, 0.0000000000000000000 ) ) ;
#204 = PRODUCT_DEFINITION_FORMATION_WITH_SPECIFIED_SOURCE ( 'ÈÎºÎ', '', #194, .NOT_KNOWN. ) ;
#205 = CIRCLE ( 'NONE', #30, 13.00000000000000400 ) ;
#206 = EDGE_LOOP ( 'NONE', ( #368, #268, #345, #88 ) ) ;
#207 = DIRECTION ( 'NONE',  ( -1.000000000000000000, -0.0000000000000000000, -0.0000000000000000000 ) ) ;
#208 = EDGE_CURVE ( 'NONE', #293, #7, #127, .T. ) ;
#209 = SECURITY_CLASSIFICATION ( '', '', #135 ) ;
#210 = CARTESIAN_POINT ( 'NONE',  ( -1.007407407407405300, 0.0000000000000000000, 0.0000000000000000000 ) ) ;
#211 = AXIS2_PLACEMENT_3D ( 'NONE', #101, #394, #267 ) ;
#212 = COORDINATED_UNIVERSAL_TIME_OFFSET ( 8, 0, .AHEAD. ) ;
#213 = CYLINDRICAL_SURFACE ( 'NONE', #80, 13.00000000000000200 ) ;
#214 = ORIENTED_EDGE ( 'NONE', *, *, #66, .T. ) ;
#215 = AXIS2_PLACEMENT_3D ( 'NONE', #347, #31, #315 ) ;
#216 = DIRECTION ( 'NONE',  ( -1.000000000000000000, -0.0000000000000000000, -0.0000000000000000000 ) ) ;
#217 = DIRECTION ( 'NONE',  ( -0.0000000000000000000, 0.0000000000000000000, 1.000000000000000000 ) ) ;
#218 = ORIENTED_EDGE ( 'NONE', *, *, #292, .F. ) ;
#219 = DIRECTION ( 'NONE',  ( 0.0000000000000000000, 0.0000000000000000000, 1.000000000000000000 ) ) ;
#220 = CARTESIAN_POINT ( 'NONE',  ( 79.00000000000001400, 1.555301434917138400E-015, -12.69999999999999900 ) ) ;
#221 = PERSON_AND_ORGANIZATION ( #358, #352 ) ;
#222 = ORIENTED_EDGE ( 'NONE', *, *, #169, .T. ) ;
#223 = CIRCLE ( 'NONE', #290, 8.000000000000000000 ) ;
#224 = APPLICATION_PROTOCOL_DEFINITION ( 'international standard', 'config_control_design', 1994, #100 ) ;
#225 = CARTESIAN_POINT ( 'NONE',  ( 75.79999999999999700, 0.0000000000000000000, 0.0000000000000000000 ) ) ;
#226 = DATE_TIME_ROLE ( 'creation_date' ) ;
#227 = AXIS2_PLACEMENT_3D ( 'NONE', #210, #281, #408 ) ;
#228 = DIRECTION ( 'NONE',  ( 0.0000000000000000000, 0.0000000000000000000, 1.000000000000000000 ) ) ;
#229 = ORIENTED_EDGE ( 'NONE', *, *, #46, .T. ) ;
#230 = LINE ( 'NONE', #77, #102 ) ;
#231 = APPLICATION_PROTOCOL_DEFINITION ( 'international standard', 'config_control_design', 1994, #136 ) ;
#232 = ORIENTED_EDGE ( 'NONE', *, *, #257, .F. ) ;
#233 = CARTESIAN_POINT ( 'NONE',  ( 0.0000000000000000000, 0.0000000000000000000, 0.0000000000000000000 ) ) ;
#234 = EDGE_CURVE ( 'NONE', #356, #199, #202, .T. ) ;
#235 = ORIENTED_EDGE ( 'NONE', *, *, #66, .F. ) ;
#236 = AXIS2_PLACEMENT_3D ( 'NONE', #233, #321, #360 ) ;
#237 = PLANE ( 'NONE',  #391 ) ;
#238 = COORDINATED_UNIVERSAL_TIME_OFFSET ( 8, 0, .AHEAD. ) ;
#239 = CIRCLE ( 'NONE', #173, 13.00000000000000400 ) ;
#240 = ORIENTED_EDGE ( 'NONE', *, *, #116, .F. ) ;
#241 = AXIS2_PLACEMENT_3D ( 'NONE', #225, #363, #140 ) ;
#242 = CALENDAR_DATE ( 2019, 28, 10 ) ;
#243 = ORIENTED_EDGE ( 'NONE', *, *, #275, .F. ) ;
#244 = UNCERTAINTY_MEASURE_WITH_UNIT (LENGTH_MEASURE( 1.000000000000000100E-005 ), #39, 'distance_accuracy_value', 'NONE');
#245 = DIRECTION ( 'NONE',  ( 0.0000000000000000000, 0.0000000000000000000, 1.000000000000000000 ) ) ;
#246 = CC_DESIGN_DATE_AND_TIME_ASSIGNMENT ( #312, #390, ( #209 ) ) ;
#247 = CARTESIAN_POINT ( 'NONE',  ( 75.00000000000000000, 1.494069094959770900E-015, -12.19999999999999900 ) ) ;
#248 = CC_DESIGN_APPROVAL ( #172, ( #204 ) ) ;
#249 = LOCAL_TIME ( 16, 39, 45.00000000000000000, #238 ) ;
#250 = CARTESIAN_POINT ( 'NONE',  ( 75.00000000000000000, 0.0000000000000000000, 0.0000000000000000000 ) ) ;
#251 = FACE_OUTER_BOUND ( 'NONE', #2, .T. ) ;
#252 = VERTEX_POINT ( 'NONE', #89 ) ;
#253 = DIRECTION ( 'NONE',  ( -1.000000000000000000, -0.0000000000000000000, -0.0000000000000000000 ) ) ;
#254 = DIRECTION ( 'NONE',  ( -1.000000000000000000, -0.0000000000000000000, -0.0000000000000000000 ) ) ;
#255 = ORIENTED_EDGE ( 'NONE', *, *, #346, .T. ) ;
#256 = CARTESIAN_POINT ( 'NONE',  ( 75.79999999999999700, 12.19999999999999900, 0.0000000000000000000 ) ) ;
#257 = EDGE_CURVE ( 'NONE', #19, #199, #263, .T. ) ;
#258 = AXIS2_PLACEMENT_3D ( 'NONE', #112, #400, #81 ) ;
#259 = CARTESIAN_POINT ( 'NONE',  ( 75.79999999999999700, 0.0000000000000000000, 12.19999999999999900 ) ) ;
#260 = CARTESIAN_POINT ( 'NONE',  ( 75.00000000000000000, 0.0000000000000000000, 0.0000000000000000000 ) ) ;
#261 = DIRECTION ( 'NONE',  ( 1.000000000000000000, 0.0000000000000000000, 0.0000000000000000000 ) ) ;
#262 = AXIS2_PLACEMENT_3D ( 'NONE', #383, #285, #319 ) ;
#263 = CIRCLE ( 'NONE', #373, 12.19999999999999900 ) ;
#264 = ORIENTED_EDGE ( 'NONE', *, *, #147, .F. ) ;
#265 = CARTESIAN_POINT ( 'NONE',  ( -1.007407407407405300, 0.0000000000000000000, 0.0000000000000000000 ) ) ;
#266 = CARTESIAN_POINT ( 'NONE',  ( 68.50000000000000000, 1.592040838891559100E-015, -13.00000000000000000 ) ) ;
#267 = DIRECTION ( 'NONE',  ( 0.0000000000000000000, 0.0000000000000000000, 1.000000000000000000 ) ) ;
#268 = ORIENTED_EDGE ( 'NONE', *, *, #292, .T. ) ;
#269 = CARTESIAN_POINT ( 'NONE',  ( -1.007407407407405300, 0.0000000000000000000, 13.00000000000000200 ) ) ;
#270 = DIRECTION ( 'NONE',  ( -1.000000000000000000, -0.0000000000000000000, -0.0000000000000000000 ) ) ;
#271 = LINE ( 'NONE', #158, #398 ) ;
#272 = ORIENTED_EDGE ( 'NONE', *, *, #143, .T. ) ;
#273 = DIRECTION ( 'NONE',  ( 1.000000000000000000, 0.0000000000000000000, 0.0000000000000000000 ) ) ;
#274 = EDGE_LOOP ( 'NONE', ( #165, #235 ) ) ;
#275 = EDGE_CURVE ( 'NONE', #21, #139, #413, .T. ) ;
#276 = AXIS2_PLACEMENT_3D ( 'NONE', #409, #406, #245 ) ;
#277 = DIRECTION ( 'NONE',  ( -1.000000000000000000, -0.0000000000000000000, -0.0000000000000000000 ) ) ;
#278 = CLOSED_SHELL ( 'NONE', ( #187, #374, #371, #15, #73, #16, #11, #111, #303, #45, #334, #351, #107 ) ) ;
#279 = LINE ( 'NONE', #3, #57 ) ;
#280 = ORIENTED_EDGE ( 'NONE', *, *, #52, .F. ) ;
#281 = DIRECTION ( 'NONE',  ( -1.000000000000000000, -0.0000000000000000000, -0.0000000000000000000 ) ) ;
#282 = EDGE_LOOP ( 'NONE', ( #365, #119 ) ) ;
#283 = DIRECTION ( 'NONE',  ( -1.000000000000000000, -0.0000000000000000000, -0.0000000000000000000 ) ) ;
#284 = DIRECTION ( 'NONE',  ( -1.000000000000000000, 0.0000000000000000000, -0.0000000000000000000 ) ) ;
#285 = DIRECTION ( 'NONE',  ( -1.000000000000000000, -0.0000000000000000000, -0.0000000000000000000 ) ) ;
#286 = APPROVAL_PERSON_ORGANIZATION ( #47, #172, #361 ) ;
#287 = CIRCLE ( 'NONE', #137, 13.00000000000000000 ) ;
#288 = PLANE ( 'NONE',  #236 ) ;
#289 = APPROVAL_STATUS ( 'not_yet_approved' ) ;
#290 = AXIS2_PLACEMENT_3D ( 'NONE', #106, #5, #228 ) ;
#291 = DIRECTION ( 'NONE',  ( 0.0000000000000000000, 0.0000000000000000000, 1.000000000000000000 ) ) ;
#292 = EDGE_CURVE ( 'NONE', #340, #78, #142, .T. ) ;
#293 = VERTEX_POINT ( 'NONE', #25 ) ;
#294 = CARTESIAN_POINT ( 'NONE',  ( 0.0000000000000000000, 0.0000000000000000000, 8.000000000000000000 ) ) ;
#295 = EDGE_CURVE ( 'NONE', #78, #76, #369, .T. ) ;
#296 = CARTESIAN_POINT ( 'NONE',  ( -1.007407407407405300, 0.0000000000000000000, 0.0000000000000000000 ) ) ;
#297 = APPROVAL_DATE_TIME ( #384, #348 ) ;
#298 = ORIENTED_EDGE ( 'NONE', *, *, #85, .T. ) ;
#299 = CIRCLE ( 'NONE', #311, 12.69999999999999900 ) ;
#300 = ORIENTED_EDGE ( 'NONE', *, *, #116, .T. ) ;
#301 = DIRECTION ( 'NONE',  ( -1.000000000000000000, -0.0000000000000000000, -0.0000000000000000000 ) ) ;
#302 = EDGE_CURVE ( 'NONE', #340, #252, #42, .T. ) ;
#303 = ADVANCED_FACE ( 'NONE', ( #118, #113 ), #410, .F. ) ;
#304 = VECTOR ( 'NONE', #185, 1000.000000000000000 ) ;
#305 = ORIENTED_EDGE ( 'NONE', *, *, #234, .F. ) ;
#306 = DIRECTION ( 'NONE',  ( -1.000000000000000000, -0.0000000000000000000, -0.0000000000000000000 ) ) ;
#307 = PERSON_AND_ORGANIZATION ( #358, #352 ) ;
#308 = ORIENTED_EDGE ( 'NONE', *, *, #346, .F. ) ;
#309 = CIRCLE ( 'NONE', #276, 8.000000000000000000 ) ;
#310 = DIRECTION ( 'NONE',  ( 0.0000000000000000000, 0.0000000000000000000, 1.000000000000000000 ) ) ;
#311 = AXIS2_PLACEMENT_3D ( 'NONE', #50, #171, #79 ) ;
#312 = DATE_AND_TIME ( #153, #249 ) ;
#313 = VECTOR ( 'NONE', #58, 1000.000000000000000 ) ;
#314 = EDGE_LOOP ( 'NONE', ( #218, #155, #134, #14 ) ) ;
#315 = DIRECTION ( 'NONE',  ( 0.0000000000000000000, 0.0000000000000000000, 1.000000000000000000 ) ) ;
#316 = EDGE_CURVE ( 'NONE', #407, #356, #32, .T. ) ;
#317 = VERTEX_POINT ( 'NONE', #129 ) ;
#318 = CYLINDRICAL_SURFACE ( 'NONE', #61, 12.19999999999999900 ) ;
#319 = DIRECTION ( 'NONE',  ( 0.0000000000000000000, 0.0000000000000000000, 1.000000000000000000 ) ) ;
#320 = AXIS2_PLACEMENT_3D ( 'NONE', #55, #306, #376 ) ;
#321 = DIRECTION ( 'NONE',  ( 1.000000000000000000, 0.0000000000000000000, 0.0000000000000000000 ) ) ;
#322 = PERSON_AND_ORGANIZATION_ROLE ( 'creator' ) ;
#323 = AXIS2_PLACEMENT_3D ( 'NONE', #167, #44, #41 ) ;
#324 = CARTESIAN_POINT ( 'NONE',  ( 75.00000000000000000, 0.0000000000000000000, 12.19999999999999900 ) ) ;
#325 = PERSON_AND_ORGANIZATION ( #358, #352 ) ;
#326 = CYLINDRICAL_SURFACE ( 'NONE', #215, 12.69999999999999900 ) ;
#327 = APPROVAL_STATUS ( 'not_yet_approved' ) ;
#328 = EDGE_LOOP ( 'NONE', ( #308, #10, #272, #243 ) ) ;
#329 = CARTESIAN_POINT ( 'NONE',  ( 75.79999999999999700, 0.0000000000000000000, 12.69999999999999900 ) ) ;
#330 = CC_DESIGN_APPROVAL ( #348, ( #209 ) ) ;
#331 = DIRECTION ( 'NONE',  ( -1.000000000000000000, -0.0000000000000000000, -0.0000000000000000000 ) ) ;
#332 = APPROVAL_DATE_TIME ( #56, #172 ) ;
#333 = FACE_OUTER_BOUND ( 'NONE', #170, .T. ) ;
#334 = ADVANCED_FACE ( 'NONE', ( #20, #174 ), #64, .F. ) ;
#335 = DIRECTION ( 'NONE',  ( 0.0000000000000000000, 0.0000000000000000000, 1.000000000000000000 ) ) ;
#336 = MANIFOLD_SOLID_BREP ( 'Ðý×ª1', #278 ) ;
#337 = DATE_AND_TIME ( #401, #189 ) ;
#338 = ORIENTED_EDGE ( 'NONE', *, *, #97, .T. ) ;
#339 = SHAPE_DEFINITION_REPRESENTATION ( #125, #395 ) ;
#340 = VERTEX_POINT ( 'NONE', #220 ) ;
#341 = DIRECTION ( 'NONE',  ( 0.0000000000000000000, 0.0000000000000000000, 1.000000000000000000 ) ) ;
#342 = EDGE_LOOP ( 'NONE', ( #104, #222, #338, #240 ) ) ;
#343 = CARTESIAN_POINT ( 'NONE',  ( 0.0000000000000000000, 0.0000000000000000000, 0.0000000000000000000 ) ) ;
#344 = CYLINDRICAL_SURFACE ( 'NONE', #323, 12.19999999999999900 ) ;
#345 = ORIENTED_EDGE ( 'NONE', *, *, #350, .F. ) ;
#346 = EDGE_CURVE ( 'NONE', #370, #21, #145, .T. ) ;
#347 = CARTESIAN_POINT ( 'NONE',  ( -1.007407407407405300, 0.0000000000000000000, 0.0000000000000000000 ) ) ;
#348 = APPROVAL ( #195, 'Î´Ö¸¶¨' ) ;
#349 = CARTESIAN_POINT ( 'NONE',  ( -1.007407407407405300, 1.592040838891559300E-015, -13.00000000000000200 ) ) ;
#350 = EDGE_CURVE ( 'NONE', #76, #78, #354, .T. ) ;
#351 = ADVANCED_FACE ( 'NONE', ( #92 ), #326, .T. ) ;
#352 = ORGANIZATION ( 'Î´Ö¸¶¨', 'Î´Ö¸¶¨', '' ) ;
#353 = ORIENTED_EDGE ( 'NONE', *, *, #130, .T. ) ;
#354 = CIRCLE ( 'NONE', #262, 12.69999999999999900 ) ;
#355 = DIRECTION ( 'NONE',  ( 0.0000000000000000000, 0.0000000000000000000, 1.000000000000000000 ) ) ;
#356 = VERTEX_POINT ( 'NONE', #99 ) ;
#357 = DIRECTION ( 'NONE',  ( 0.0000000000000000000, 0.0000000000000000000, 1.000000000000000000 ) ) ;
#358 = PERSON ( 'Î´Ö¸¶¨', 'Î´Ö¸¶¨', 'Î´Ö¸¶¨', ('Î´Ö¸¶¨'), ('Î´Ö¸¶¨'), ('Î´Ö¸¶¨') ) ;
#359 = CC_DESIGN_PERSON_AND_ORGANIZATION_ASSIGNMENT ( #149, #38, ( #160 ) ) ;
#360 = DIRECTION ( 'NONE',  ( 0.0000000000000000000, 0.0000000000000000000, -1.000000000000000000 ) ) ;
#361 = APPROVAL_ROLE ( '' ) ;
#362 = EDGE_CURVE ( 'NONE', #252, #76, #271, .T. ) ;
#363 = DIRECTION ( 'NONE',  ( -1.000000000000000000, -0.0000000000000000000, -0.0000000000000000000 ) ) ;
#364 = CIRCLE ( 'NONE', #17, 8.000000000000000000 ) ;
#365 = ORIENTED_EDGE ( 'NONE', *, *, #109, .F. ) ;
#366 = CARTESIAN_POINT ( 'NONE',  ( 0.0000000000000000000, 0.0000000000000000000, 0.0000000000000000000 ) ) ;
#367 = AXIS2_PLACEMENT_3D ( 'NONE', #380, #216, #179 ) ;
#368 = ORIENTED_EDGE ( 'NONE', *, *, #109, .T. ) ;
#369 = CIRCLE ( 'NONE', #320, 12.69999999999999900 ) ;
#370 = VERTEX_POINT ( 'NONE', #126 ) ;
#371 = ADVANCED_FACE ( 'NONE', ( #8 ), #163, .T. ) ;
#372 = DIRECTION ( 'NONE',  ( 0.0000000000000000000, 0.0000000000000000000, 1.000000000000000000 ) ) ;
#373 = AXIS2_PLACEMENT_3D ( 'NONE', #90, #94, #310 ) ;
#374 = ADVANCED_FACE ( 'NONE', ( #150 ), #318, .T. ) ;
#375 = ORIENTED_EDGE ( 'NONE', *, *, #169, .F. ) ;
#376 = DIRECTION ( 'NONE',  ( 0.0000000000000000000, 0.0000000000000000000, 1.000000000000000000 ) ) ;
#377 = COORDINATED_UNIVERSAL_TIME_OFFSET ( 8, 0, .AHEAD. ) ;
#378 = CIRCLE ( 'NONE', #258, 12.19999999999999900 ) ;
#379 = CC_DESIGN_PERSON_AND_ORGANIZATION_ASSIGNMENT ( #325, #322, ( #204 ) ) ;
#380 = CARTESIAN_POINT ( 'NONE',  ( 68.50000000000000000, 0.0000000000000000000, 0.0000000000000000000 ) ) ;
#381 = CIRCLE ( 'NONE', #241, 12.19999999999999900 ) ;
#382 = ORIENTED_EDGE ( 'NONE', *, *, #147, .T. ) ;
#383 = CARTESIAN_POINT ( 'NONE',  ( 75.79999999999999700, 0.0000000000000000000, 0.0000000000000000000 ) ) ;
#384 = DATE_AND_TIME ( #162, #6 ) ;
#385 = ORIENTED_EDGE ( 'NONE', *, *, #257, .T. ) ;
#386 = FACE_OUTER_BOUND ( 'NONE', #282, .T. ) ;
#387 = CARTESIAN_POINT ( 'NONE',  ( -1.007407407407405300, 0.0000000000000000000, 0.0000000000000000000 ) ) ;
#388 = ORIENTED_EDGE ( 'NONE', *, *, #295, .T. ) ;
#389 =( NAMED_UNIT ( * ) PLANE_ANGLE_UNIT ( ) SI_UNIT ( $, .RADIAN. ) );
#390 = DATE_TIME_ROLE ( 'classification_date' ) ;
#391 = AXIS2_PLACEMENT_3D ( 'NONE', #203, #115, #48 ) ;
#392 = APPROVAL_ROLE ( '' ) ;
#393 = EDGE_LOOP ( 'NONE', ( #53, #388 ) ) ;
#394 = DIRECTION ( 'NONE',  ( -1.000000000000000000, -0.0000000000000000000, -0.0000000000000000000 ) ) ;
#395 = ADVANCED_BREP_SHAPE_REPRESENTATION ( 'WWL30-65A STEPÍ¼', ( #336, #51 ), #95 ) ;
#396 = APPROVAL_DATE_TIME ( #405, #124 ) ;
#397 = EDGE_LOOP ( 'NONE', ( #33, #375 ) ) ;
#398 = VECTOR ( 'NONE', #283, 1000.000000000000000 ) ;
#399 = CARTESIAN_POINT ( 'NONE',  ( 68.50000000000000000, 0.0000000000000000000, 13.00000000000000000 ) ) ;
#400 = DIRECTION ( 'NONE',  ( -1.000000000000000000, -0.0000000000000000000, -0.0000000000000000000 ) ) ;
#401 = CALENDAR_DATE ( 2019, 28, 10 ) ;
#402 = EDGE_LOOP ( 'NONE', ( #154, #36, #232, #280 ) ) ;
#403 = VECTOR ( 'NONE', #277, 1000.000000000000000 ) ;
#404 = EDGE_LOOP ( 'NONE', ( #98, #255, #412, #114 ) ) ;
#405 = DATE_AND_TIME ( #131, #18 ) ;
#406 = DIRECTION ( 'NONE',  ( -1.000000000000000000, -0.0000000000000000000, -0.0000000000000000000 ) ) ;
#407 = VERTEX_POINT ( 'NONE', #259 ) ;
#408 = DIRECTION ( 'NONE',  ( 0.0000000000000000000, 0.0000000000000000000, 1.000000000000000000 ) ) ;
#409 = CARTESIAN_POINT ( 'NONE',  ( 68.50000000000000000, 0.0000000000000000000, 0.0000000000000000000 ) ) ;
#410 = PLANE ( 'NONE',  #156 ) ;
#411 = AXIS2_PLACEMENT_3D ( 'NONE', #70, #96, #186 ) ;
#412 = ORIENTED_EDGE ( 'NONE', *, *, #130, .F. ) ;
#413 = CIRCLE ( 'NONE', #367, 13.00000000000000000 ) ;
#414 = ORIENTED_EDGE ( 'NONE', *, *, #97, .F. ) ;
#415 = DIRECTION ( 'NONE',  ( -1.000000000000000000, -0.0000000000000000000, -0.0000000000000000000 ) ) ;
ENDSEC;
END-ISO-10303-21;
