ISO-10303-21;
HEADER;
FILE_DESCRIPTION (( 'STEP AP203' ),
    '1' );
FILE_NAME ('WWL40-110A STEPÍ¼.STEP',
    '2019-10-28T09:04:38',
    ( '' ),
    ( '' ),
    'SwSTEP 2.0',
    'SolidWorks 2014',
    '' );
FILE_SCHEMA (( 'CONFIG_CONTROL_DESIGN' ));
ENDSEC;

DATA;
#1 = VECTOR ( 'NONE', #18, 1000.000000000000000 ) ;
#2 = ORIENTED_EDGE ( 'NONE', *, *, #21, .T. ) ;
#3 = ORIENTED_EDGE ( 'NONE', *, *, #90, .T. ) ;
#4 = CARTESIAN_POINT ( 'NONE',  ( -3.821963361021257100, 0.0000000000000000000, 12.69999999999999900 ) ) ;
#5 = ADVANCED_FACE ( 'NONE', ( #71 ), #6, .T. ) ;
#6 = CYLINDRICAL_SURFACE ( 'NONE', #140, 12.19999999999999900 ) ;
#7 = ADVANCED_FACE ( 'NONE', ( #330 ), #95, .F. ) ;
#8 = CYLINDRICAL_SURFACE ( 'NONE', #295, 8.000000000000000000 ) ;
#9 = ORIENTED_EDGE ( 'NONE', *, *, #158, .F. ) ;
#10 = CIRCLE ( 'NONE', #12, 12.69999999999999900 ) ;
#11 = DIRECTION ( 'NONE',  ( -1.000000000000000000, -0.0000000000000000000, -0.0000000000000000000 ) ) ;
#12 = AXIS2_PLACEMENT_3D ( 'NONE', #24, #204, #340 ) ;
#13 = ORIENTED_EDGE ( 'NONE', *, *, #392, .T. ) ;
#14 = AXIS2_PLACEMENT_3D ( 'NONE', #214, #76, #163 ) ;
#15 = DIRECTION ( 'NONE',  ( 0.0000000000000000000, 0.0000000000000000000, 1.000000000000000000 ) ) ;
#16 = ORIENTED_EDGE ( 'NONE', *, *, #151, .F. ) ;
#17 = PERSON_AND_ORGANIZATION ( #104, #19 ) ;
#18 = DIRECTION ( 'NONE',  ( -1.000000000000000000, -0.0000000000000000000, -0.0000000000000000000 ) ) ;
#19 = ORGANIZATION ( 'Î´Ö¸¶¨', 'Î´Ö¸¶¨', '' ) ;
#20 = DIRECTION ( 'NONE',  ( 0.0000000000000000000, 0.0000000000000000000, 1.000000000000000000 ) ) ;
#21 = EDGE_CURVE ( 'NONE', #89, #348, #34, .T. ) ;
#22 = CARTESIAN_POINT ( 'NONE',  ( 126.0000000000000000, 1.592040838891559100E-015, -13.00000000000000000 ) ) ;
#23 = VERTEX_POINT ( 'NONE', #318 ) ;
#24 = CARTESIAN_POINT ( 'NONE',  ( 136.5000000000000000, 0.0000000000000000000, 0.0000000000000000000 ) ) ;
#25 = ORIENTED_EDGE ( 'NONE', *, *, #175, .T. ) ;
#26 = PRODUCT_DEFINITION ( 'Î´Öª', '', #242, #354 ) ;
#27 = CARTESIAN_POINT ( 'NONE',  ( 133.3000000000000400, 0.0000000000000000000, 0.0000000000000000000 ) ) ;
#28 = LINE ( 'NONE', #105, #373 ) ;
#29 = DIRECTION ( 'NONE',  ( 0.0000000000000000000, 0.0000000000000000000, 1.000000000000000000 ) ) ;
#30 = ORIENTED_EDGE ( 'NONE', *, *, #235, .F. ) ;
#31 = PERSON_AND_ORGANIZATION_ROLE ( 'creator' ) ;
#32 = AXIS2_PLACEMENT_3D ( 'NONE', #144, #309, #33 ) ;
#33 = DIRECTION ( 'NONE',  ( 1.000000000000000000, 0.0000000000000000000, 0.0000000000000000000 ) ) ;
#34 = LINE ( 'NONE', #4, #403 ) ;
#35 = CARTESIAN_POINT ( 'NONE',  ( -3.821963361021257100, 1.555301434917138400E-015, -12.69999999999999900 ) ) ;
#36 = AXIS2_PLACEMENT_3D ( 'NONE', #368, #374, #88 ) ;
#37 = ADVANCED_FACE ( 'NONE', ( #274 ), #261, .T. ) ;
#38 = ORIENTED_EDGE ( 'NONE', *, *, #361, .T. ) ;
#39 = VERTEX_POINT ( 'NONE', #170 ) ;
#40 = DIRECTION ( 'NONE',  ( 0.0000000000000000000, 0.0000000000000000000, 1.000000000000000000 ) ) ;
#41 = PERSON_AND_ORGANIZATION ( #104, #19 ) ;
#42 = AXIS2_PLACEMENT_3D ( 'NONE', #197, #358, #78 ) ;
#43 = LINE ( 'NONE', #269, #92 ) ;
#44 = LOCAL_TIME ( 17, 4, 38.00000000000000000, #135 ) ;
#45 = EDGE_CURVE ( 'NONE', #89, #278, #356, .T. ) ;
#46 = APPROVAL_PERSON_ORGANIZATION ( #288, #134, #120 ) ;
#47 = DIRECTION ( 'NONE',  ( -1.000000000000000000, -0.0000000000000000000, -0.0000000000000000000 ) ) ;
#48 = CC_DESIGN_PERSON_AND_ORGANIZATION_ASSIGNMENT ( #217, #152, ( #327 ) ) ;
#49 = DIRECTION ( 'NONE',  ( -1.000000000000000000, -0.0000000000000000000, -0.0000000000000000000 ) ) ;
#50 = ORIENTED_EDGE ( 'NONE', *, *, #119, .F. ) ;
#51 = ORIENTED_EDGE ( 'NONE', *, *, #90, .F. ) ;
#52 = DIRECTION ( 'NONE',  ( -1.000000000000000000, -0.0000000000000000000, -0.0000000000000000000 ) ) ;
#53 = DIRECTION ( 'NONE',  ( 0.0000000000000000000, 0.0000000000000000000, 1.000000000000000000 ) ) ;
#54 = AXIS2_PLACEMENT_3D ( 'NONE', #304, #240, #302 ) ;
#55 = DIRECTION ( 'NONE',  ( 0.0000000000000000000, 0.0000000000000000000, 1.000000000000000000 ) ) ;
#56 = LINE ( 'NONE', #236, #321 ) ;
#57 = CARTESIAN_POINT ( 'NONE',  ( 136.5000000000000000, 0.0000000000000000000, 12.69999999999999900 ) ) ;
#58 =( LENGTH_UNIT ( ) NAMED_UNIT ( * ) SI_UNIT ( .MILLI., .METRE. ) );
#59 = CARTESIAN_POINT ( 'NONE',  ( 126.0000000000000000, 0.0000000000000000000, 13.00000000000000000 ) ) ;
#60 = CIRCLE ( 'NONE', #136, 8.000000000000000000 ) ;
#61 = DIRECTION ( 'NONE',  ( 0.0000000000000000000, 0.0000000000000000000, 1.000000000000000000 ) ) ;
#62 = PERSON_AND_ORGANIZATION ( #104, #19 ) ;
#63 = CARTESIAN_POINT ( 'NONE',  ( -3.821963361021257100, 0.0000000000000000000, 0.0000000000000000000 ) ) ;
#64 = ORIENTED_EDGE ( 'NONE', *, *, #96, .F. ) ;
#65 = EDGE_CURVE ( 'NONE', #357, #97, #347, .T. ) ;
#66 = APPLICATION_PROTOCOL_DEFINITION ( 'international standard', 'config_control_design', 1994, #190 ) ;
#67 = AXIS2_PLACEMENT_3D ( 'NONE', #81, #400, #404 ) ;
#68 = ADVANCED_FACE ( 'NONE', ( #155, #121 ), #167, .F. ) ;
#69 = CIRCLE ( 'NONE', #166, 13.00000000000000000 ) ;
#70 = EDGE_LOOP ( 'NONE', ( #360, #256, #221, #125 ) ) ;
#71 = FACE_OUTER_BOUND ( 'NONE', #181, .T. ) ;
#72 = DIRECTION ( 'NONE',  ( -1.000000000000000000, -0.0000000000000000000, -0.0000000000000000000 ) ) ;
#73 = CIRCLE ( 'NONE', #227, 13.00000000000000000 ) ;
#74 = VERTEX_POINT ( 'NONE', #132 ) ;
#75 = ORIENTED_EDGE ( 'NONE', *, *, #45, .F. ) ;
#76 = DIRECTION ( 'NONE',  ( -1.000000000000000000, 0.0000000000000000000, -0.0000000000000000000 ) ) ;
#77 = CYLINDRICAL_SURFACE ( 'NONE', #397, 12.69999999999999900 ) ;
#78 = DIRECTION ( 'NONE',  ( 0.0000000000000000000, 0.0000000000000000000, 1.000000000000000000 ) ) ;
#79 = CARTESIAN_POINT ( 'NONE',  ( -3.821963361021257100, 0.0000000000000000000, 0.0000000000000000000 ) ) ;
#80 = EDGE_CURVE ( 'NONE', #23, #283, #60, .T. ) ;
#81 = CARTESIAN_POINT ( 'NONE',  ( 126.0000000000000000, 8.000000000000000000, 0.0000000000000000000 ) ) ;
#82 = LINE ( 'NONE', #35, #220 ) ;
#83 = EDGE_CURVE ( 'NONE', #165, #208, #69, .T. ) ;
#84 = DIRECTION ( 'NONE',  ( -1.000000000000000000, -0.0000000000000000000, -0.0000000000000000000 ) ) ;
#85 = CARTESIAN_POINT ( 'NONE',  ( -3.821963361021257100, 1.592040838891559100E-015, -13.00000000000000000 ) ) ;
#86 = VERTEX_POINT ( 'NONE', #270 ) ;
#87 = VERTEX_POINT ( 'NONE', #297 ) ;
#88 = DIRECTION ( 'NONE',  ( 0.0000000000000000000, 0.0000000000000000000, -1.000000000000000000 ) ) ;
#89 = VERTEX_POINT ( 'NONE', #57 ) ;
#90 = EDGE_CURVE ( 'NONE', #357, #184, #328, .T. ) ;
#91 = ORIENTED_EDGE ( 'NONE', *, *, #96, .T. ) ;
#92 = VECTOR ( 'NONE', #301, 1000.000000000000000 ) ;
#93 = ORIENTED_EDGE ( 'NONE', *, *, #364, .T. ) ;
#94 = COORDINATED_UNIVERSAL_TIME_OFFSET ( 8, 0, .AHEAD. ) ;
#95 = PLANE ( 'NONE',  #14 ) ;
#96 = EDGE_CURVE ( 'NONE', #74, #86, #282, .T. ) ;
#97 = VERTEX_POINT ( 'NONE', #176 ) ;
#98 = ORIENTED_EDGE ( 'NONE', *, *, #257, .F. ) ;
#99 = ORIENTED_EDGE ( 'NONE', *, *, #83, .F. ) ;
#100 = DIRECTION ( 'NONE',  ( 0.0000000000000000000, 0.0000000000000000000, 1.000000000000000000 ) ) ;
#101 = EDGE_LOOP ( 'NONE', ( #75, #275 ) ) ;
#102 = CARTESIAN_POINT ( 'NONE',  ( 132.5000000000000000, 0.0000000000000000000, 0.0000000000000000000 ) ) ;
#103 = EDGE_LOOP ( 'NONE', ( #124, #38, #99, #324 ) ) ;
#104 = PERSON ( 'Î´Ö¸¶¨', 'Î´Ö¸¶¨', 'Î´Ö¸¶¨', ('Î´Ö¸¶¨'), ('Î´Ö¸¶¨'), ('Î´Ö¸¶¨') ) ;
#105 = CARTESIAN_POINT ( 'NONE',  ( -3.821963361021257100, 9.797174393178825700E-016, -8.000000000000000000 ) ) ;
#106 = DIRECTION ( 'NONE',  ( -1.000000000000000000, -0.0000000000000000000, -0.0000000000000000000 ) ) ;
#107 = ORIENTED_EDGE ( 'NONE', *, *, #392, .F. ) ;
#108 = CARTESIAN_POINT ( 'NONE',  ( -3.821963361021257100, 0.0000000000000000000, 0.0000000000000000000 ) ) ;
#109 = ORIENTED_EDGE ( 'NONE', *, *, #209, .T. ) ;
#110 = EDGE_LOOP ( 'NONE', ( #64, #225 ) ) ;
#111 = CARTESIAN_POINT ( 'NONE',  ( 136.5000000000000000, 1.555301434917138400E-015, -12.69999999999999900 ) ) ;
#112 = CARTESIAN_POINT ( 'NONE',  ( 133.3000000000000400, 12.19999999999999900, 0.0000000000000000000 ) ) ;
#113 = CARTESIAN_POINT ( 'NONE',  ( 133.3000000000000400, 0.0000000000000000000, 0.0000000000000000000 ) ) ;
#114 = ORIENTED_EDGE ( 'NONE', *, *, #151, .T. ) ;
#115 = CALENDAR_DATE ( 2019, 28, 10 ) ;
#116 = DATE_AND_TIME ( #115, #343 ) ;
#117 = AXIS2_PLACEMENT_3D ( 'NONE', #224, #47, #168 ) ;
#118 = APPLICATION_PROTOCOL_DEFINITION ( 'international standard', 'config_control_design', 1994, #342 ) ;
#119 = EDGE_CURVE ( 'NONE', #74, #283, #305, .T. ) ;
#120 = APPROVAL_ROLE ( '' ) ;
#121 = FACE_BOUND ( 'NONE', #366, .T. ) ;
#122 = AXIS2_PLACEMENT_3D ( 'NONE', #267, #84, #266 ) ;
#123 = CIRCLE ( 'NONE', #252, 12.19999999999999900 ) ;
#124 = ORIENTED_EDGE ( 'NONE', *, *, #158, .T. ) ;
#125 = ORIENTED_EDGE ( 'NONE', *, *, #80, .F. ) ;
#126 = ADVANCED_FACE ( 'NONE', ( #137, #215 ), #406, .F. ) ;
#127 = COORDINATED_UNIVERSAL_TIME_OFFSET ( 8, 0, .AHEAD. ) ;
#128 = APPROVAL_DATE_TIME ( #391, #277 ) ;
#129 = AXIS2_PLACEMENT_3D ( 'NONE', #179, #303, #273 ) ;
#130 = ORIENTED_EDGE ( 'NONE', *, *, #344, .T. ) ;
#131 = CARTESIAN_POINT ( 'NONE',  ( 132.5000000000000000, 13.00000000000000000, 0.0000000000000000000 ) ) ;
#132 = CARTESIAN_POINT ( 'NONE',  ( 126.0000000000000000, 0.0000000000000000000, 8.000000000000000000 ) ) ;
#133 = CYLINDRICAL_SURFACE ( 'NONE', #313, 12.19999999999999900 ) ;
#134 = APPROVAL ( #247, 'Î´Ö¸¶¨' ) ;
#135 = COORDINATED_UNIVERSAL_TIME_OFFSET ( 8, 0, .AHEAD. ) ;
#136 = AXIS2_PLACEMENT_3D ( 'NONE', #237, #106, #291 ) ;
#137 = FACE_BOUND ( 'NONE', #268, .T. ) ;
#138 = EDGE_LOOP ( 'NONE', ( #399, #412 ) ) ;
#139 = DIRECTION ( 'NONE',  ( 0.0000000000000000000, 0.0000000000000000000, 1.000000000000000000 ) ) ;
#140 = AXIS2_PLACEMENT_3D ( 'NONE', #196, #314, #40 ) ;
#141 = FACE_OUTER_BOUND ( 'NONE', #70, .T. ) ;
#142 = CARTESIAN_POINT ( 'NONE',  ( 133.3000000000000400, 1.494069094959770900E-015, -12.19999999999999900 ) ) ;
#143 = CARTESIAN_POINT ( 'NONE',  ( 0.0000000000000000000, 0.0000000000000000000, 8.000000000000000000 ) ) ;
#144 = CARTESIAN_POINT ( 'NONE',  ( 0.0000000000000000000, 0.0000000000000000000, 0.0000000000000000000 ) ) ;
#145 = DIRECTION ( 'NONE',  ( 1.000000000000000000, 0.0000000000000000000, 0.0000000000000000000 ) ) ;
#146 = AXIS2_PLACEMENT_3D ( 'NONE', #63, #280, #281 ) ;
#147 = CLOSED_SHELL ( 'NONE', ( #37, #5, #284, #216, #319, #385, #161, #248, #68, #191, #126, #311, #7 ) ) ;
#148 = DIRECTION ( 'NONE',  ( 0.0000000000000000000, 0.0000000000000000000, 1.000000000000000000 ) ) ;
#149 = PLANE ( 'NONE',  #36 ) ;
#150 = DIRECTION ( 'NONE',  ( 0.0000000000000000000, 0.0000000000000000000, 1.000000000000000000 ) ) ;
#151 = EDGE_CURVE ( 'NONE', #283, #23, #183, .T. ) ;
#152 = PERSON_AND_ORGANIZATION_ROLE ( 'classification_officer' ) ;
#153 = CYLINDRICAL_SURFACE ( 'NONE', #402, 8.000000000000000000 ) ;
#154 = CC_DESIGN_PERSON_AND_ORGANIZATION_ASSIGNMENT ( #186, #185, ( #26 ) ) ;
#155 = FACE_OUTER_BOUND ( 'NONE', #174, .T. ) ;
#156 = ORIENTED_EDGE ( 'NONE', *, *, #410, .T. ) ;
#157 = LOCAL_TIME ( 17, 4, 38.00000000000000000, #127 ) ;
#158 = EDGE_CURVE ( 'NONE', #87, #39, #254, .T. ) ;
#159 = FACE_OUTER_BOUND ( 'NONE', #203, .T. ) ;
#160 = ORIENTED_EDGE ( 'NONE', *, *, #45, .T. ) ;
#161 = ADVANCED_FACE ( 'NONE', ( #407, #164 ), #326, .F. ) ;
#162 =( GEOMETRIC_REPRESENTATION_CONTEXT ( 3 ) GLOBAL_UNCERTAINTY_ASSIGNED_CONTEXT ( ( #276 ) ) GLOBAL_UNIT_ASSIGNED_CONTEXT ( ( #58, #272, #338 ) ) REPRESENTATION_CONTEXT ( 'NONE', 'WORKASPACE' ) );
#163 = DIRECTION ( 'NONE',  ( -0.0000000000000000000, 0.0000000000000000000, 1.000000000000000000 ) ) ;
#164 = FACE_OUTER_BOUND ( 'NONE', #138, .T. ) ;
#165 = VERTEX_POINT ( 'NONE', #59 ) ;
#166 = AXIS2_PLACEMENT_3D ( 'NONE', #334, #329, #265 ) ;
#167 = PLANE ( 'NONE',  #355 ) ;
#168 = DIRECTION ( 'NONE',  ( 0.0000000000000000000, 0.0000000000000000000, 1.000000000000000000 ) ) ;
#169 = FACE_OUTER_BOUND ( 'NONE', #189, .T. ) ;
#170 = CARTESIAN_POINT ( 'NONE',  ( 132.5000000000000000, 1.592040838891559100E-015, -13.00000000000000000 ) ) ;
#171 = ORIENTED_EDGE ( 'NONE', *, *, #235, .T. ) ;
#172 = DIRECTION ( 'NONE',  ( -1.000000000000000000, -0.0000000000000000000, -0.0000000000000000000 ) ) ;
#173 = CIRCLE ( 'NONE', #122, 13.00000000000000000 ) ;
#174 = EDGE_LOOP ( 'NONE', ( #9, #250 ) ) ;
#175 = EDGE_CURVE ( 'NONE', #39, #87, #73, .T. ) ;
#176 = CARTESIAN_POINT ( 'NONE',  ( 133.3000000000000400, 0.0000000000000000000, 12.19999999999999900 ) ) ;
#177 = DIRECTION ( 'NONE',  ( -1.000000000000000000, -0.0000000000000000000, -0.0000000000000000000 ) ) ;
#178 = CC_DESIGN_DATE_AND_TIME_ASSIGNMENT ( #116, #382, ( #327 ) ) ;
#179 = CARTESIAN_POINT ( 'NONE',  ( 132.5000000000000000, 0.0000000000000000000, 0.0000000000000000000 ) ) ;
#180 = ORIENTED_EDGE ( 'NONE', *, *, #286, .T. ) ;
#181 = EDGE_LOOP ( 'NONE', ( #244, #3, #30, #389 ) ) ;
#182 = CARTESIAN_POINT ( 'NONE',  ( -3.821963361021257100, 0.0000000000000000000, 0.0000000000000000000 ) ) ;
#183 = CIRCLE ( 'NONE', #245, 8.000000000000000000 ) ;
#184 = VERTEX_POINT ( 'NONE', #372 ) ;
#185 = PERSON_AND_ORGANIZATION_ROLE ( 'creator' ) ;
#186 = PERSON_AND_ORGANIZATION ( #104, #19 ) ;
#187 = MECHANICAL_CONTEXT ( 'NONE', #342, 'mechanical' ) ;
#188 = APPROVAL_ROLE ( '' ) ;
#189 = EDGE_LOOP ( 'NONE', ( #114, #381 ) ) ;
#190 = APPLICATION_CONTEXT ( 'configuration controlled 3d designs of mechanical parts and assemblies' ) ;
#191 = ADVANCED_FACE ( 'NONE', ( #386 ), #133, .T. ) ;
#192 = AXIS2_PLACEMENT_3D ( 'NONE', #79, #335, #210 ) ;
#193 = ORIENTED_EDGE ( 'NONE', *, *, #344, .F. ) ;
#194 = EDGE_LOOP ( 'NONE', ( #160, #180, #193, #312 ) ) ;
#195 = APPROVAL_DATE_TIME ( #200, #263 ) ;
#196 = CARTESIAN_POINT ( 'NONE',  ( -3.821963361021257100, 0.0000000000000000000, 0.0000000000000000000 ) ) ;
#197 = CARTESIAN_POINT ( 'NONE',  ( 133.3000000000000400, 0.0000000000000000000, 0.0000000000000000000 ) ) ;
#198 = EDGE_CURVE ( 'NONE', #86, #74, #336, .T. ) ;
#199 = CC_DESIGN_APPROVAL ( #134, ( #26 ) ) ;
#200 = DATE_AND_TIME ( #408, #157 ) ;
#201 = DIRECTION ( 'NONE',  ( -1.000000000000000000, -0.0000000000000000000, -0.0000000000000000000 ) ) ;
#202 = CIRCLE ( 'NONE', #415, 12.69999999999999900 ) ;
#203 = EDGE_LOOP ( 'NONE', ( #375, #93, #2, #388 ) ) ;
#204 = DIRECTION ( 'NONE',  ( -1.000000000000000000, -0.0000000000000000000, -0.0000000000000000000 ) ) ;
#205 = DIRECTION ( 'NONE',  ( 0.0000000000000000000, 0.0000000000000000000, -1.000000000000000000 ) ) ;
#206 = CARTESIAN_POINT ( 'NONE',  ( 133.3000000000000400, 1.555301434917138400E-015, -12.69999999999999900 ) ) ;
#207 = FACE_OUTER_BOUND ( 'NONE', #306, .T. ) ;
#208 = VERTEX_POINT ( 'NONE', #22 ) ;
#209 = EDGE_CURVE ( 'NONE', #86, #23, #28, .T. ) ;
#210 = DIRECTION ( 'NONE',  ( 0.0000000000000000000, 0.0000000000000000000, 1.000000000000000000 ) ) ;
#211 = APPROVAL_STATUS ( 'not_yet_approved' ) ;
#212 = EDGE_CURVE ( 'NONE', #208, #165, #173, .T. ) ;
#213 = CARTESIAN_POINT ( 'NONE',  ( 132.5000000000000000, 0.0000000000000000000, 0.0000000000000000000 ) ) ;
#214 = CARTESIAN_POINT ( 'NONE',  ( 136.5000000000000000, 12.69999999999999900, 0.0000000000000000000 ) ) ;
#215 = FACE_OUTER_BOUND ( 'NONE', #350, .T. ) ;
#216 = ADVANCED_FACE ( 'NONE', ( #207 ), #153, .T. ) ;
#217 = PERSON_AND_ORGANIZATION ( #104, #19 ) ;
#218 = CC_DESIGN_DATE_AND_TIME_ASSIGNMENT ( #233, #279, ( #26 ) ) ;
#219 = AXIS2_PLACEMENT_3D ( 'NONE', #112, #145, #205 ) ;
#220 = VECTOR ( 'NONE', #11, 1000.000000000000000 ) ;
#221 = ORIENTED_EDGE ( 'NONE', *, *, #119, .T. ) ;
#222 = PRODUCT_DEFINITION_SHAPE ( 'NONE', 'NONE',  #26 ) ;
#223 = COORDINATED_UNIVERSAL_TIME_OFFSET ( 8, 0, .AHEAD. ) ;
#224 = CARTESIAN_POINT ( 'NONE',  ( -3.821963361021257100, 0.0000000000000000000, 0.0000000000000000000 ) ) ;
#225 = ORIENTED_EDGE ( 'NONE', *, *, #198, .F. ) ;
#226 = CARTESIAN_POINT ( 'NONE',  ( -3.821963361021257100, 0.0000000000000000000, 8.000000000000000000 ) ) ;
#227 = AXIS2_PLACEMENT_3D ( 'NONE', #362, #52, #55 ) ;
#228 = CIRCLE ( 'NONE', #387, 12.69999999999999900 ) ;
#229 = ORIENTED_EDGE ( 'NONE', *, *, #65, .T. ) ;
#230 = PRODUCT ( 'WWL40-110A STEPÍ¼', 'WWL40-110A STEPÍ¼', '', ( #187 ) ) ;
#231 = CC_DESIGN_PERSON_AND_ORGANIZATION_ASSIGNMENT ( #351, #345, ( #230 ) ) ;
#232 = ORIENTED_EDGE ( 'NONE', *, *, #253, .T. ) ;
#233 = DATE_AND_TIME ( #401, #353 ) ;
#234 = DIRECTION ( 'NONE',  ( -1.000000000000000000, -0.0000000000000000000, -0.0000000000000000000 ) ) ;
#235 = EDGE_CURVE ( 'NONE', #317, #184, #123, .T. ) ;
#236 = CARTESIAN_POINT ( 'NONE',  ( -3.821963361021257100, 0.0000000000000000000, 13.00000000000000000 ) ) ;
#237 = CARTESIAN_POINT ( 'NONE',  ( 0.0000000000000000000, 0.0000000000000000000, 0.0000000000000000000 ) ) ;
#238 = CIRCLE ( 'NONE', #394, 12.19999999999999900 ) ;
#239 = EDGE_LOOP ( 'NONE', ( #51, #229, #255, #107 ) ) ;
#240 = DIRECTION ( 'NONE',  ( -1.000000000000000000, -0.0000000000000000000, -0.0000000000000000000 ) ) ;
#241 = DIRECTION ( 'NONE',  ( -1.000000000000000000, -0.0000000000000000000, -0.0000000000000000000 ) ) ;
#242 = PRODUCT_DEFINITION_FORMATION_WITH_SPECIFIED_SOURCE ( 'ÈÎºÎ', '', #230, .NOT_KNOWN. ) ;
#243 = PERSON_AND_ORGANIZATION_ROLE ( 'design_supplier' ) ;
#244 = ORIENTED_EDGE ( 'NONE', *, *, #257, .T. ) ;
#245 = AXIS2_PLACEMENT_3D ( 'NONE', #339, #300, #15 ) ;
#246 = SHAPE_DEFINITION_REPRESENTATION ( #222, #289 ) ;
#247 = APPROVAL_STATUS ( 'not_yet_approved' ) ;
#248 = ADVANCED_FACE ( 'NONE', ( #249 ), #411, .T. ) ;
#249 = FACE_OUTER_BOUND ( 'NONE', #287, .T. ) ;
#250 = ORIENTED_EDGE ( 'NONE', *, *, #175, .F. ) ;
#251 = CARTESIAN_POINT ( 'NONE',  ( 133.3000000000000400, 0.0000000000000000000, 0.0000000000000000000 ) ) ;
#252 = AXIS2_PLACEMENT_3D ( 'NONE', #213, #241, #148 ) ;
#253 = EDGE_CURVE ( 'NONE', #296, #348, #228, .T. ) ;
#254 = CIRCLE ( 'NONE', #380, 13.00000000000000000 ) ;
#255 = ORIENTED_EDGE ( 'NONE', *, *, #413, .T. ) ;
#256 = ORIENTED_EDGE ( 'NONE', *, *, #198, .T. ) ;
#257 = EDGE_CURVE ( 'NONE', #97, #357, #238, .T. ) ;
#258 = APPROVAL_DATE_TIME ( #377, #134 ) ;
#259 = CC_DESIGN_PERSON_AND_ORGANIZATION_ASSIGNMENT ( #17, #31, ( #242 ) ) ;
#260 = DIRECTION ( 'NONE',  ( -0.0000000000000000000, 0.0000000000000000000, 1.000000000000000000 ) ) ;
#261 = CYLINDRICAL_SURFACE ( 'NONE', #117, 12.69999999999999900 ) ;
#262 = LOCAL_TIME ( 17, 4, 38.00000000000000000, #369 ) ;
#263 = APPROVAL ( #211, 'Î´Ö¸¶¨' ) ;
#264 = DIRECTION ( 'NONE',  ( 0.0000000000000000000, 0.0000000000000000000, 1.000000000000000000 ) ) ;
#265 = DIRECTION ( 'NONE',  ( 0.0000000000000000000, 0.0000000000000000000, 1.000000000000000000 ) ) ;
#266 = DIRECTION ( 'NONE',  ( 0.0000000000000000000, 0.0000000000000000000, 1.000000000000000000 ) ) ;
#267 = CARTESIAN_POINT ( 'NONE',  ( 126.0000000000000000, 0.0000000000000000000, 0.0000000000000000000 ) ) ;
#268 = EDGE_LOOP ( 'NONE', ( #98, #383 ) ) ;
#269 = CARTESIAN_POINT ( 'NONE',  ( -3.821963361021257100, 0.0000000000000000000, 12.19999999999999900 ) ) ;
#270 = CARTESIAN_POINT ( 'NONE',  ( 126.0000000000000000, 9.797174393178825700E-016, -8.000000000000000000 ) ) ;
#271 = DIRECTION ( 'NONE',  ( -1.000000000000000000, -0.0000000000000000000, -0.0000000000000000000 ) ) ;
#272 =( NAMED_UNIT ( * ) PLANE_ANGLE_UNIT ( ) SI_UNIT ( $, .RADIAN. ) );
#273 = DIRECTION ( 'NONE',  ( 0.0000000000000000000, 0.0000000000000000000, 1.000000000000000000 ) ) ;
#274 = FACE_OUTER_BOUND ( 'NONE', #194, .T. ) ;
#275 = ORIENTED_EDGE ( 'NONE', *, *, #364, .F. ) ;
#276 = UNCERTAINTY_MEASURE_WITH_UNIT (LENGTH_MEASURE( 1.000000000000000100E-005 ), #58, 'distance_accuracy_value', 'NONE');
#277 = APPROVAL ( #379, 'Î´Ö¸¶¨' ) ;
#278 = VERTEX_POINT ( 'NONE', #111 ) ;
#279 = DATE_TIME_ROLE ( 'creation_date' ) ;
#280 = DIRECTION ( 'NONE',  ( -1.000000000000000000, -0.0000000000000000000, -0.0000000000000000000 ) ) ;
#281 = DIRECTION ( 'NONE',  ( 0.0000000000000000000, 0.0000000000000000000, 1.000000000000000000 ) ) ;
#282 = CIRCLE ( 'NONE', #54, 8.000000000000000000 ) ;
#283 = VERTEX_POINT ( 'NONE', #143 ) ;
#284 = ADVANCED_FACE ( 'NONE', ( #323 ), #308, .T. ) ;
#285 = CC_DESIGN_APPROVAL ( #263, ( #242 ) ) ;
#286 = EDGE_CURVE ( 'NONE', #278, #296, #82, .T. ) ;
#287 = EDGE_LOOP ( 'NONE', ( #384, #25, #156, #393 ) ) ;
#288 = PERSON_AND_ORGANIZATION ( #104, #19 ) ;
#289 = ADVANCED_BREP_SHAPE_REPRESENTATION ( 'WWL40-110A STEPÍ¼', ( #316, #32 ), #162 ) ;
#290 = CALENDAR_DATE ( 2019, 28, 10 ) ;
#291 = DIRECTION ( 'NONE',  ( 0.0000000000000000000, 0.0000000000000000000, 1.000000000000000000 ) ) ;
#292 = DIRECTION ( 'NONE',  ( 0.0000000000000000000, 0.0000000000000000000, 1.000000000000000000 ) ) ;
#293 = CARTESIAN_POINT ( 'NONE',  ( -3.821963361021257100, 0.0000000000000000000, 0.0000000000000000000 ) ) ;
#294 = LINE ( 'NONE', #85, #398 ) ;
#295 = AXIS2_PLACEMENT_3D ( 'NONE', #108, #409, #61 ) ;
#296 = VERTEX_POINT ( 'NONE', #206 ) ;
#297 = CARTESIAN_POINT ( 'NONE',  ( 132.5000000000000000, 0.0000000000000000000, 13.00000000000000000 ) ) ;
#298 = CARTESIAN_POINT ( 'NONE',  ( 126.0000000000000000, 0.0000000000000000000, 0.0000000000000000000 ) ) ;
#299 = DIRECTION ( 'NONE',  ( -1.000000000000000000, -0.0000000000000000000, -0.0000000000000000000 ) ) ;
#300 = DIRECTION ( 'NONE',  ( -1.000000000000000000, -0.0000000000000000000, -0.0000000000000000000 ) ) ;
#301 = DIRECTION ( 'NONE',  ( -1.000000000000000000, -0.0000000000000000000, -0.0000000000000000000 ) ) ;
#302 = DIRECTION ( 'NONE',  ( 0.0000000000000000000, 0.0000000000000000000, 1.000000000000000000 ) ) ;
#303 = DIRECTION ( 'NONE',  ( -1.000000000000000000, -0.0000000000000000000, -0.0000000000000000000 ) ) ;
#304 = CARTESIAN_POINT ( 'NONE',  ( 126.0000000000000000, 0.0000000000000000000, 0.0000000000000000000 ) ) ;
#305 = LINE ( 'NONE', #226, #1 ) ;
#306 = EDGE_LOOP ( 'NONE', ( #91, #109, #16, #50 ) ) ;
#307 = CC_DESIGN_PERSON_AND_ORGANIZATION_ASSIGNMENT ( #390, #243, ( #242 ) ) ;
#308 = CYLINDRICAL_SURFACE ( 'NONE', #146, 13.00000000000000000 ) ;
#309 = DIRECTION ( 'NONE',  ( 0.0000000000000000000, 0.0000000000000000000, 1.000000000000000000 ) ) ;
#310 = AXIS2_PLACEMENT_3D ( 'NONE', #322, #49, #100 ) ;
#311 = ADVANCED_FACE ( 'NONE', ( #159 ), #77, .T. ) ;
#312 = ORIENTED_EDGE ( 'NONE', *, *, #21, .F. ) ;
#313 = AXIS2_PLACEMENT_3D ( 'NONE', #359, #367, #53 ) ;
#314 = DIRECTION ( 'NONE',  ( -1.000000000000000000, -0.0000000000000000000, -0.0000000000000000000 ) ) ;
#315 = CALENDAR_DATE ( 2019, 28, 10 ) ;
#316 = MANIFOLD_SOLID_BREP ( 'Ðý×ª1', #147 ) ;
#317 = VERTEX_POINT ( 'NONE', #333 ) ;
#318 = CARTESIAN_POINT ( 'NONE',  ( 0.0000000000000000000, 9.797174393178825700E-016, -8.000000000000000000 ) ) ;
#319 = ADVANCED_FACE ( 'NONE', ( #169 ), #149, .F. ) ;
#320 = CC_DESIGN_SECURITY_CLASSIFICATION ( #327, ( #242 ) ) ;
#321 = VECTOR ( 'NONE', #337, 1000.000000000000000 ) ;
#322 = CARTESIAN_POINT ( 'NONE',  ( 136.5000000000000000, 0.0000000000000000000, 0.0000000000000000000 ) ) ;
#323 = FACE_OUTER_BOUND ( 'NONE', #103, .T. ) ;
#324 = ORIENTED_EDGE ( 'NONE', *, *, #410, .F. ) ;
#325 = DIRECTION ( 'NONE',  ( -1.000000000000000000, -0.0000000000000000000, -0.0000000000000000000 ) ) ;
#326 = PLANE ( 'NONE',  #67 ) ;
#327 = SECURITY_CLASSIFICATION ( '', '', #414 ) ;
#328 = LINE ( 'NONE', #332, #341 ) ;
#329 = DIRECTION ( 'NONE',  ( -1.000000000000000000, -0.0000000000000000000, -0.0000000000000000000 ) ) ;
#330 = FACE_OUTER_BOUND ( 'NONE', #101, .T. ) ;
#331 = DIRECTION ( 'NONE',  ( -1.000000000000000000, -0.0000000000000000000, -0.0000000000000000000 ) ) ;
#332 = CARTESIAN_POINT ( 'NONE',  ( -3.821963361021257100, 1.494069094959770900E-015, -12.19999999999999900 ) ) ;
#333 = CARTESIAN_POINT ( 'NONE',  ( 132.5000000000000000, 0.0000000000000000000, 12.19999999999999900 ) ) ;
#334 = CARTESIAN_POINT ( 'NONE',  ( 126.0000000000000000, 0.0000000000000000000, 0.0000000000000000000 ) ) ;
#335 = DIRECTION ( 'NONE',  ( -1.000000000000000000, -0.0000000000000000000, -0.0000000000000000000 ) ) ;
#336 = CIRCLE ( 'NONE', #352, 8.000000000000000000 ) ;
#337 = DIRECTION ( 'NONE',  ( -1.000000000000000000, -0.0000000000000000000, -0.0000000000000000000 ) ) ;
#338 =( NAMED_UNIT ( * ) SI_UNIT ( $, .STERADIAN. ) SOLID_ANGLE_UNIT ( ) );
#339 = CARTESIAN_POINT ( 'NONE',  ( 0.0000000000000000000, 0.0000000000000000000, 0.0000000000000000000 ) ) ;
#340 = DIRECTION ( 'NONE',  ( 0.0000000000000000000, 0.0000000000000000000, 1.000000000000000000 ) ) ;
#341 = VECTOR ( 'NONE', #405, 1000.000000000000000 ) ;
#342 = APPLICATION_CONTEXT ( 'configuration controlled 3d designs of mechanical parts and assemblies' ) ;
#343 = LOCAL_TIME ( 17, 4, 38.00000000000000000, #94 ) ;
#344 = EDGE_CURVE ( 'NONE', #348, #296, #202, .T. ) ;
#345 = PERSON_AND_ORGANIZATION_ROLE ( 'design_owner' ) ;
#346 = APPROVAL_ROLE ( '' ) ;
#347 = CIRCLE ( 'NONE', #42, 12.19999999999999900 ) ;
#348 = VERTEX_POINT ( 'NONE', #371 ) ;
#349 = DIRECTION ( 'NONE',  ( -1.000000000000000000, -0.0000000000000000000, -0.0000000000000000000 ) ) ;
#350 = EDGE_LOOP ( 'NONE', ( #130, #232 ) ) ;
#351 = PERSON_AND_ORGANIZATION ( #104, #19 ) ;
#352 = AXIS2_PLACEMENT_3D ( 'NONE', #298, #172, #20 ) ;
#353 = LOCAL_TIME ( 17, 4, 38.00000000000000000, #223 ) ;
#354 = DESIGN_CONTEXT ( 'detailed design', #190, 'design' ) ;
#355 = AXIS2_PLACEMENT_3D ( 'NONE', #131, #395, #260 ) ;
#356 = CIRCLE ( 'NONE', #310, 12.69999999999999900 ) ;
#357 = VERTEX_POINT ( 'NONE', #142 ) ;
#358 = DIRECTION ( 'NONE',  ( -1.000000000000000000, -0.0000000000000000000, -0.0000000000000000000 ) ) ;
#359 = CARTESIAN_POINT ( 'NONE',  ( -3.821963361021257100, 0.0000000000000000000, 0.0000000000000000000 ) ) ;
#360 = ORIENTED_EDGE ( 'NONE', *, *, #209, .F. ) ;
#361 = EDGE_CURVE ( 'NONE', #39, #208, #294, .T. ) ;
#362 = CARTESIAN_POINT ( 'NONE',  ( 132.5000000000000000, 0.0000000000000000000, 0.0000000000000000000 ) ) ;
#363 = APPROVAL_PERSON_ORGANIZATION ( #41, #277, #188 ) ;
#364 = EDGE_CURVE ( 'NONE', #278, #89, #10, .T. ) ;
#365 = PRODUCT_RELATED_PRODUCT_CATEGORY ( 'detail', '', ( #230 ) ) ;
#366 = EDGE_LOOP ( 'NONE', ( #171, #13 ) ) ;
#367 = DIRECTION ( 'NONE',  ( -1.000000000000000000, -0.0000000000000000000, -0.0000000000000000000 ) ) ;
#368 = CARTESIAN_POINT ( 'NONE',  ( 0.0000000000000000000, 0.0000000000000000000, 0.0000000000000000000 ) ) ;
#369 = COORDINATED_UNIVERSAL_TIME_OFFSET ( 8, 0, .AHEAD. ) ;
#370 = DIRECTION ( 'NONE',  ( 0.0000000000000000000, 0.0000000000000000000, 1.000000000000000000 ) ) ;
#371 = CARTESIAN_POINT ( 'NONE',  ( 133.3000000000000400, 0.0000000000000000000, 12.69999999999999900 ) ) ;
#372 = CARTESIAN_POINT ( 'NONE',  ( 132.5000000000000000, 1.494069094959770900E-015, -12.19999999999999900 ) ) ;
#373 = VECTOR ( 'NONE', #177, 1000.000000000000000 ) ;
#374 = DIRECTION ( 'NONE',  ( 1.000000000000000000, 0.0000000000000000000, 0.0000000000000000000 ) ) ;
#375 = ORIENTED_EDGE ( 'NONE', *, *, #286, .F. ) ;
#376 = APPROVAL_PERSON_ORGANIZATION ( #62, #263, #346 ) ;
#377 = DATE_AND_TIME ( #290, #262 ) ;
#378 = CC_DESIGN_APPROVAL ( #277, ( #327 ) ) ;
#379 = APPROVAL_STATUS ( 'not_yet_approved' ) ;
#380 = AXIS2_PLACEMENT_3D ( 'NONE', #102, #325, #264 ) ;
#381 = ORIENTED_EDGE ( 'NONE', *, *, #80, .T. ) ;
#382 = DATE_TIME_ROLE ( 'classification_date' ) ;
#383 = ORIENTED_EDGE ( 'NONE', *, *, #65, .F. ) ;
#384 = ORIENTED_EDGE ( 'NONE', *, *, #361, .F. ) ;
#385 = ADVANCED_FACE ( 'NONE', ( #141 ), #8, .T. ) ;
#386 = FACE_OUTER_BOUND ( 'NONE', #239, .T. ) ;
#387 = AXIS2_PLACEMENT_3D ( 'NONE', #251, #349, #29 ) ;
#388 = ORIENTED_EDGE ( 'NONE', *, *, #253, .F. ) ;
#389 = ORIENTED_EDGE ( 'NONE', *, *, #413, .F. ) ;
#390 = PERSON_AND_ORGANIZATION ( #104, #19 ) ;
#391 = DATE_AND_TIME ( #315, #44 ) ;
#392 = EDGE_CURVE ( 'NONE', #184, #317, #396, .T. ) ;
#393 = ORIENTED_EDGE ( 'NONE', *, *, #212, .F. ) ;
#394 = AXIS2_PLACEMENT_3D ( 'NONE', #27, #271, #370 ) ;
#395 = DIRECTION ( 'NONE',  ( -1.000000000000000000, 0.0000000000000000000, -0.0000000000000000000 ) ) ;
#396 = CIRCLE ( 'NONE', #129, 12.19999999999999900 ) ;
#397 = AXIS2_PLACEMENT_3D ( 'NONE', #182, #201, #292 ) ;
#398 = VECTOR ( 'NONE', #299, 1000.000000000000000 ) ;
#399 = ORIENTED_EDGE ( 'NONE', *, *, #83, .T. ) ;
#400 = DIRECTION ( 'NONE',  ( 1.000000000000000000, 0.0000000000000000000, 0.0000000000000000000 ) ) ;
#401 = CALENDAR_DATE ( 2019, 28, 10 ) ;
#402 = AXIS2_PLACEMENT_3D ( 'NONE', #293, #331, #139 ) ;
#403 = VECTOR ( 'NONE', #72, 1000.000000000000000 ) ;
#404 = DIRECTION ( 'NONE',  ( 0.0000000000000000000, 0.0000000000000000000, -1.000000000000000000 ) ) ;
#405 = DIRECTION ( 'NONE',  ( -1.000000000000000000, -0.0000000000000000000, -0.0000000000000000000 ) ) ;
#406 = PLANE ( 'NONE',  #219 ) ;
#407 = FACE_BOUND ( 'NONE', #110, .T. ) ;
#408 = CALENDAR_DATE ( 2019, 28, 10 ) ;
#409 = DIRECTION ( 'NONE',  ( -1.000000000000000000, -0.0000000000000000000, -0.0000000000000000000 ) ) ;
#410 = EDGE_CURVE ( 'NONE', #87, #165, #56, .T. ) ;
#411 = CYLINDRICAL_SURFACE ( 'NONE', #192, 13.00000000000000000 ) ;
#412 = ORIENTED_EDGE ( 'NONE', *, *, #212, .T. ) ;
#413 = EDGE_CURVE ( 'NONE', #97, #317, #43, .T. ) ;
#414 = SECURITY_CLASSIFICATION_LEVEL ( 'unclassified' ) ;
#415 = AXIS2_PLACEMENT_3D ( 'NONE', #113, #234, #150 ) ;
ENDSEC;
END-ISO-10303-21;
